» » »

Misc Computer Games, Age Of Empires Peaceful Village Tabs (ver.1)

Artists:  A B C D E F G H I J K L M N O P Q R S T U V W X Y Z # 

Age Of Empires Peaceful Village Tabs (ver.1)

Misc Computer Games Tabs
Rating:
0/5 (0 votes)
Age Of Empires Peaceful Village lessons Tabs too difficult? Try these video lessons and learn fast
                (Intro)
This is sick when you do it properly. Listen to the music first. It's in 3/4, the
hiephuns count quavers and 96 crotchets per minute.

e|---3-----------3-----------3-----------3--------|
b|----4----3------4----3------4----3------4---3---|
g|-05--5--0-3--05-----0----05--5--0-30-05--5--3---|
d|-------0-----------0-----------0-----------0----|
a|3-----------3-----------3-----------3-----------|
e|------3-----------3-----------3-----------3-----|
  123456123456123456123456123456123456123456123456


After two bars:
Gtr 1(fancy flute tune):

e|--63----------63----------63----------63--------|
b|-4--64--34---4--64-------4--64----3--4--64------|
g|5-----5---3-5-----535---5-----5-30--5-----535---|
d|------------------------------------------------|
a|------------------------------------------------|
e|------------------------------------------------|
  123456123456123456123456123456123456123456123456

Gtr 2 (and underneath):

e|-----3-------------3-------------3-------------3---------|
b|----4-4----3------4-4--33-------4-4----3------4-4--33----|
g|-0h5---5--03---0h5---5-33----0h5---5--03---0h5---5-33----|
d|---------0-------------00------------0-------------00----|
a|3-------------3-------------3-------------3--------------|
e|--------3-------------3-------------3-------------3------|
  12--345612345612--345612345612--345612345612--3456123456-|

the rest is just continuation and slight variation so wont tab it
            
Submit corrections

comments powered by Disqus
↑ Back to top | Misc Computer Games Tabs for Age Of Empires Peaceful Village. Lyrics for acoustic guitar and electric guitar. Tablatures and chords are parodies/interpretations of the original songs. You may use it for private study, scholarship, research or language learning purposes only