» » »

Age Of Empires 2 Tabs (ver.2)

Artists:  A B C D E F G H I J K L M N O P Q R S T U V W X Y Z # 

Age Of Empires 2 Tabs (ver.2)

Misc Computer Games
Rating:
5/5 (3 votes)

Hard to play? Try these video lessons and learn fast.
                "(Theme)
Hey i just changed some things from an other tab,
which i thought was wrong :)

e|----------------------------------------|
B|------------------------------------8---|
G|---------7--10-9-7-9------7--10-9-7-----|
D|-------7----------------7---------------|
A|----------------------------------------|
E|----------------------------------------|

e|-----------------------------|
B|-----------------------------|
G|---7--10-9-7-9---9-10-9-5-7--|
D|-7---------------------------|
A|-----------------------------|
E|-----------------------------|



e|--15-14-15-17-18-17-15----------------------------------------------|
B|-----------------------16-15----------------------------------------|
G|-------------------------------12-12-14-15-17-15-14-11-12-----------|
D|--------------------------------------------------------------------|
A|--------------------------------------------------------------------|
E|--------------------------------------------------------------------|

e|--15-15-15-15----15-17-18-17-15-------------------------------------|
B|--------------15----------------16-15-------------------------------|
G|--------------------------------------12-12-14-15-17-15-14-11-12----|
D|--------------------------------------------------------------------|
A|--------------------------------------------------------------------|
E|--------------------------------------------------------------------|

e|------------------------------------10------------------------------|
B|----10-13-12-10-12------10-13-12-10--------10-13-12-10-12-----------|
G|--9-------------------9------------------9--------------------------|
D|--------------------------------------------------------------------|
A|--------------------------------------------------------------------|
E|--------------------------------------------------------------------|

e|------------------------|
B|--12-13-12-8-(8)-10-----|
G|------------------------|
D|------------------------|
A|------------------------|
E|------------------------|


Just replace * with a @
to send junkmails to and they copy everything with a @ in it
"            
Hard to play? Try these video lessons and learn fast. | Correct




comments powered by Disqus
↑ Back to top | Tablatures and chords are parodies/interpretations of the original songs. You may use it for private study, scholarship, research or language learning purposes only