» » »

Misc Computer Games, Advance Wars - Jakes Tabs (ver.1)

Artists:  A B C D E F G H I J K L M N O P Q R S T U V W X Y Z # 

Advance Wars - Jakes Tabs (ver.1)

Misc Computer Games Tabs
Rating:
3/5 (2 votes)
Hard to play? Try these video lessons and learn fast.
                (Theme)
\ - Slide
x - Dead note

e|------------------------|----------------------------------|
B|------------------------|----------------------------------|
G|------------------------|----------------------------------|
D|7\9-9-9-9-9---7\9-9-9-9-|-x-x-x-7\9-9-9-9-9----7\9-9-9-9-9-|
A|7\9-9-9-9-9---7\9-9-9-9-|-x-x-x-7\9-9-9-9-9----7\9-9-9-9-9-|
E|5\7-7-7-7-7---5\7-7-7-7-|-x-x-x-5\7-7-7-7-7----5\9-9-9-9-9-|

e|------------------|------------------|
B|------------------|------------------|
G|-----9\10\9\7\5\7-|-----x-3----------|
D|-9-9-9\10\9\7\5\7-|-5-5-x-3-x-x-x-5\7|
A|-9-9-7\ 8\7\5\3\5-|-5-5-x-5-x-x-x-5\7|
E|-7-7--------------|-3-3-----x-x-x-3\5|

e|-------------------------------|-----------------------------|
B|-------------------------------|-----------------------------|
G|-------------------------------|-----------------------------|
D|-7\9-9-9-9-9---7\9-9-9-9-9-x-12|-7\9-9-9-9-9---7\9-9-9-9-9-5-|
A|-7\9-9-9-9-9---7\9-9-9-9-9-x-12|-7\9-9-9-9-9---7\9-9-9-9-9-5-|
E|-5\7-7-7-7-7---5\7-7-7-7-7-x-10|-5\7-7-7-7-7---5\7-7-7-7-7-3-|
            

comments powered by Disqus
↑ Back to top | Misc Computer Games Tabs for Advance Wars - Jakes. Lyrics for acoustic guitar and electric guitar. Tablatures and chords are parodies/interpretations of the original songs. You may use it for private study, scholarship, research or language learning purposes only