» » »

Misc Computer Games, Advance Wars 2 - Samis Tabs (ver.1)

Artists:  A B C D E F G H I J K L M N O P Q R S T U V W X Y Z # 

Advance Wars 2 - Samis Tabs (ver.1)

Misc Computer Games Tabs
 Rating:
4/5 (4 votes)
Advance Wars 2 - Samis lessons Tabs too difficult? Try these video lessons and learn fast
1
                (Theme)
-------------------------------------------------------------------------------
                             SAMIS THEME - Advanced Wars
-------------------------------------------------------------------------------

Tuning: Standard


Rhythm Guitar

Intro
e|---------------------------------------------------------------------------|
B|---------------------------------------------------------------------------|
G|------------------xx--5--5-----xx--7--7-------9--7-9-7---------------------|
D|----------7--7----xx--5--5-----xx--7--7-------9--7-9-7---------------------|
A|----------7--7----xx--3--3-----xx--5--5------------------------------------|
E|----------5--5-------------------------------------------------------------|

e|---------------------------------------------------------------------------|
B|---------------------------------------------------------------------------|
G|------------------xx-5-5-----xx--7-7---------------------------------------|
D|----------7-7-----xx-5-5-----xx--7-7-----5-5--x--5--x-5-5------------------|
A|----------7-7-----xx-3-3-----xx--5-5-----5-5--x--5--x-5-5------------------|
E|----------5-5----------------------------3-3--x--3--x-3-3------------------|2x


During Solo part one
e|---------------------------------------|---------------------------------------|
B|---------------------------------------|---------------------------------------|
G|----------------------------5----------|-----7-------5-----5-----5-----5-------|
D|----------7----------5--5h7----7-7\----|-----7---------7p5---7p5---7p5---7p5---|
A|----------7------5h7-------------------|-----5---------------------------------|
E|----------5----------------------------|---------------------------------------|




Solo Guitar

Intro
e-----------17\---|---------17--17\---|-------17----17\---|-------17----17\---|
B-----------------|-------------------|-------------------|-------------------|
G-----------------|-------------------|-------------------|-------------------|
D-----------------|-------------------|-------------------|-------------------|
A-----------------|-------------------|-------------------|-------------------|
E-----------------|-------------------|-------------------|-------------------|


Solo part one
e|---------------------------------------------------------------------------|
B|---------------------------------------------------------------------------|
G|---------------------------------------------------------------------------|
D|-----------------------------17b-------------------------------------------|
A|---19--19---17----17h19 19---------19--19---19-19---16---19-19~------------|
E|---------------------------------------------------------------------------|

e|--------------------------------------------|
B|--------17----------------------------------|
G|-------------19-----------------------------|
D|-----------------17b------------------------|
A|-------------------------19~----------------|
E|--------------------------------------------|


e|---------------------------------------------------------------------------|
B|---------------------------------------------------------------------------|
G|---------------------------------------------------------------------------|
D|-----------------------------17b-------------------------------------------|
A|---19--19---17----17h19 19---------19--19---19-19---16---19-19~------------|
E|---------------------------------------------------------------------------|

e|--------------------------------------------|
B|--------17--------18---20--18~\-------------|
G|-------------19~----------------------------|
D|--------------------------------------------|
A|--------------------------------------------|
E|--------------------------------------------|

Solo part two
e|------------------------------------------------|
B|------17--15-------17----15---------------------|
G|--------------14-------------14------14---------|
D|----------------------------------17------------|
A|------------------------------------------------|
E|------------------------------------------------|

e|---------------------------------------------------------------|
B|----------------------------------------------17--17--15-------|
G|----------14-14--------14-14--------14-14----------------------|
D|---14h16---------14h16--------14h16----------------------------|
A|---------------------------------------------------------------|
E|---------------------------------------------------------------|

e|------------------------------------------------|
B|------17--15-------17----15---------------------|
G|--------------14-------------14------14---------|
D|----------------------------------17------------|
A|------------------------------------------------|
E|------------------------------------------------|

e|------------------------------------------------------------------|
B|------------------------------------------------------------------|
G|-----16b17r16-14--16b17r16--14--16~---14--16~---------14----------|
D|------------------------------------------------14h16------16~\---|
A|------------------------------------------------------------------|
E|------------------------------------------------------------------|

Solo part three
e|---------------------------------------------------------------------------|
B|----------22---------20---------22---------20-----20-----------------------|
G|----19h21------19h21------19h21------19h21-----19----19--------------------|
D|---------------------------------------------------------------------------|
A|---------------------------------------------------------------------------|
E|---------------------------------------------------------------------------|

e|-------------------------------------------20------19b20-19b20------------------------17-------|
B|----------22---------20---------22-------------------------------17h20--17h20--17h20-----------|
G|----19h21------19h21------19h21-------21-------------------------------------------------------|
D|-----------------------------------------------------------------------------------------------|
A|-----------------------------------------------------------------------------------------------|
E|-----------------------------------------------------------------------------------------------|

e|-------20-17----------------------------------------------------|
B|-17h20-------20-17-20-17-----17---------------------------------|
G|-------------------------19-----------19----19~-------21---19\--|
D|-----------------------------------------19---------------------|
A|----------------------------------------------------------------|
E|----------------------------------------------------------------|



| /  slide up
| \  slide down
| h  hammer-on
| p  pull-off
| ~  vibrato
| +  harmonic
| x  Mute note
===============================================================================
            
Submit corrections

comments powered by Disqus
↑ Back to top | Misc Computer Games Tabs for Advance Wars 2 - Samis. Lyrics for acoustic guitar and electric guitar. 1 Tablatures and chords are parodies/interpretations of the original songs. You may use it for private study, scholarship, research or language learning purposes only