>
 >
Ace Combat 2 - Aim High

Ace Combat 2 - Aim High Guitar Tabs

Misc Computer Games - Ace Combat 2 - Aim High chords, tabs, tablatures, lyrics

Guitar lessons | Add/correct | Request | Top 50 tabs Artists:  A B C D E F G H I J K L M N O P Q R S T U V W X Y Z 0-9

Ace Combat 2 - Aim High Guitar Tabs – Misc Computer Games

CD, Sheet music, Poster

Do you like Ace Combat 2 - Aim High? Share with your friends now
Tabs
-----------------------------------------------------------------------------
                             Aim High - Ace Combat 2 OST
-----------------------------------------------------------------------------

will sound fine. I haven't notated any vibrato, just add where it feels right.

Tuning: Standard

              -Tremolo
E----------------------------------------------------|
B----------------------------------------------------|
G----------9--7-----------9--7-----------------------|
D----------9--7-----------9--7-----------------------|
A----------7--5-----------7--5----------7-10-9-5-----|
E-0-0-0---------0-0-0----------5-7-8--------------5--|

              -Tremolo
E----------------------------------------------------|
B----------------------------------------------------|
G----------9--7-----------9--7-----------------------|
D----------9--7-----------9--7-----------------------|
A----------7--5-----------7--5----------7-10-9-5-----|
E-0-0-0---------0-0-0----------5-7-8--------------5--|

E--------------------------------------------------|
B--------------------------------------------7-----|
G--------------------------------------------7-----|
D--------------------------------------------7-----|
A---------7-10-9-5--------7-10-9-5-----------------|
E-5-7-8-------------5-7-8--------------------------|

              -Tremolo
E----------------------------------------------------|
B----------------------------------------------------|
G----------9--7-----------9--7-----------------------|
D----------9--7-----------9--7-----------------------|
A----------7--5-----------7--5----------7-10-9-5-----|
E-0-0-0---------0-0-0----------5-7-8--------------5--|

              -Tremolo
E----------------------------------------------------|
B----------------------------------------------------|
G----------9--7-----------9--7-----------------------|
D----------7--5-----------7--5-----------------------|
A----------7--5-----------7--5----------7-10-9-5-----|
E-0-0-0---------0-0-0----------5-7-8--------------5--|

              -Tremolo
E----------------------------------------------------|
B----------------------------------------------------|
G----------9--7-----------9--7-----------------------|
D----------9--7-----------9--7-----------------------|
A----------7--5-----------7--5----------7-10-9-5-----|
E-0-0-0---------0-0-0----------5-7-8--------------5--|

              -Tremolo
E------------------------------|
B------------------------------|
G----------9--7-----------9--7-|
D----------9--7-----------9--7-|
A----------7--5-----------7--5-|
E-0-0-0---------0-0-0----------|

E------------------------------------------------------|
B---------------------------------------------17-19b20-|
G---------------------------14-16-17-19----------------|
D--------------14-16-17--------------------------------|
A-14-15-17---------------------------------------------|
E------------------------------------------------------|

E----------------17-19-17-15------|
B-19b20-15-19------------------15-|
G---------------------------------|
D---------------------------------|
A---------------------------------|
E---------------------------------|

E---------------------------------------------------------------------|
B-15-15-19-15-13-15-13-12-13-12-10-12-10-8-7-8------------------------|
G---------------------------------------------------------------------|
D---------------------------------------------------------------------|
A---------------------------------------------------------------------|
E---------------------------------------------------------------------|

E----------------------------------------------------------------|
B---------------15-17--------------13-15-17b19br17-15-17-15------|
G-14-16-17b19----------17-16-14----------------------------------|
D----------------------------------------------------------------|
A----------------------------------------------------------------|
E----------------------------------------------------------------|

E-----------------------------------|
B-----19----20----21-20b22-20-19-20-|
G-16----16----16--------------------|
D-----------------------------------|
A-----------------------------------|
E-----------------------------------|

E-----17-----19----20-20b22-20-19-20-19------|
B-15-----15----15-------------------------20-|
G--------------------------------------------|
D--------------------------------------------|
A--------------------------------------------|
E--------------------------------------------|

E--------------------------------------------------------------|
B-19-20-19-17-19-17-15-17b19-17-15-17-17b19-17b19-17-15-17-12--|
G--------------------------------------------------------------|
D--------------------------------------------------------------|
A--------------------------------------------------------------|
E--------------------------------------------------------------|


E-------------------|
B-7p5---------------|
G------7p5----7-7-7-|
D-------------5-5-5-|
A-------------------|
E-------------------|

              -Tremolo
E----------------------------------------------------|
B----------------------------------------------------|
G----------9--7-----------9--7-----------------------|
D----------9--7-----------9--7-----------------------|
A----------7--5-----------7--5----------7-10-9-5-----|
E-0-0-0---------0-0-0----------5-7-8--------------5--|

              -Tremolo
E----------------------------------------------------|
B----------------------------------------------------|
G----------9--7-----------9--7-----------------------|
D----------9--7-----------9--7-----------------------|
A----------7--5-----------7--5----------7-10-9-5-----|
E-0-0-0---------0-0-0----------5-7-8--------------5--|

              -Tremolo
E----------------------------------------------------|
B----------------------------------------------------|
G----------9--7-----------9--7-----------------------|
D----------9--7-----------9--7-----------------------|
A----------7--5-----------7--5----------7-10-9-5-----|
E-0-0-0---------0-0-0----------5-7-8--------------5--|

              -Tremolo
E------------------------------|
B------------------------------|
G----------9--7-----------9--7-|
D----------9--7-----------9--7-|
A----------7--5-----------7--5-|
E-0-0-0---------0-0-0----------|

E---------------------------------------------------|
B---------------------------------------------------|
G------------------------------------16-17-19-19b21-|
D--------------12-14-16-17-19-----------------------|
A-12-14-15------------------------------------------|
E---------------------------------------------------|

E-----------------------------|
B-19-20-19-20-19--------------|
G-----------------------19-16-|
D-----------------------------|
A-----------------------------|
E-----------------------------|

E------------14-12--------------------------------------------|
B--------12---------13-12-------------------------------------|
G----12----------------------14-12--------14-12-11-12---------|
D-14----------------------------------14----------------------|
A-------------------------------------------------------------|
E-------------------------------------------------------------|

E--------------------------------------------------19-20-20b22--|
B----------15-17-19-19b20-19-17-19-20-22------------------------|
G-14-16---------------------------------------------------------|
D---------------------------------------------------------------|
A---------------------------------------------------------------|
E---------------------------------------------------------------|

E-------------------------------------|
B----------17-------------------15-12-|
G-14-16-17-----17-14--12-14-16--------|
D-------------------------------------|
A-------------------------------------|
E-------------------------------------|

E------------------------17b19-15-17-|
B-----------13-10--------------------|
G-10-12-14---------10-9--------------|
D------------------------------------|
A------------------------------------|
E------------------------------------|

E-------------------------------------|
B-20-19-20-22-20-19-20-19-17-19-17-15-|
G-------------------------------------|
D-------------------------------------|
A-------------------------------------|
E-------------------------------------|

E-------------------------------------------------|
B-------------------------------------------------|
G-17-16-17-19-17-16-17-16-14-16-14-12-14-12-11-12-|
D-------------------------------------------------|
A-------------------------------------------------|
E-------------------------------------------------|

E-----------------------------|
B-15b17-17-19-20-19-17-15-----|
G-x---------------------------|
D-x---------------------------|
A-x---------------------------|
E-----------------------------|

|--------------Tapping-----------------|
E-12-20-15-12-20-15-12-20-15-12-20-15--|
B--------------------------------------|
G--------------------------------------|
D--------------------------------------|
A--------------------------------------|
E--------------------------------------|

|--------------Tapping-----------------|
E-12-19-14-12-19-14-12-19-14-12-19-14--|
B--------------------------------------|
G--------------------------------------|
D--------------------------------------|
A--------------------------------------|
E--------------------------------------|

E------------------|
B------------------|
G-7p5--------------|
D------7p5---7-7-7-|
A------------5-5-5-|
E------------------|

************************************

| /   slide up
| \   slide down
| h   hammer-on
| p   pull-off
| ~   vibrato
| +   harmonic
| x   Mute note
| b   Bend
| pb  Pre-bend
| br  Bend release
| pbr Pre-bend release
| brb Bend release bend

************************************





Comments


Popular Misc Computer Games tabs & chords
Espn Extreme Games Theme Bass Tabs
Cyber Troopers Virtual-On - Monstrous Beat Chords
Chrono Cross - Radical Dreamers Tabs
Dynasty Warriors 5 Theme Tabs
Fairy Fountain Tabs
Farmville Theme 1 Tabs
Halo 2 Theme Tabs
Sonic Heroes - Trailer Theme Tabs
Tetris Music C Tabs
Chrono Cross - Radical Dreamers Ukulele


Song lyrics



↑ Back to top | Tablatures and chords are parodies/interpretations of the original songs. You may use it for private study, scholarship, research or language learning purposes only
© 2014 AZChords.com Contact us | Privacy policy | DMCA | Add/correct tabs | Request tabs | Top 50 tabs