» » »

Misc Comp Games, Monkey Island Tabs (ver.1)

Artists:  A B C D E F G H I J K L M N O P Q R S T U V W X Y Z # 

Monkey Island Tabs (ver.1)

Misc Comp Games Tabs
Rating:
0/5 (0 votes)
Monkey Island lessons Tabs too difficult? Try these video lessons and learn fast
                Monkey Island Theme (tabed by Mekaneck)


   Am             F              G              Dm    Am
E------------------------------------------------------------| <--This is the main melody
B------------------------------------------------------------|
G-----5--4---------------------------------------------------|
D--7--------7--5--7--------------5--5--------5---------------|
A--------------------------------------8--7-----8--8--7------|
E--------------------------------------------------------5---|




   Am             F       Dm   G        G           Am    G    F       G        F
E----------------------------------|------------------------------|----------------------------|<-Then comes..
B----------------------------------|------------------------------|----------------------------|
G-----5--4-------------5--7----4---|-5--4--------4--5--5--4-------|-5--4-----------------------|
D--7--------7--5--7----------------|-------7--5----------------7--|-------7--5--7--------------|
A----------------------------------|------------------------------|----------------------------|
E----------------------------------|------------------------------|----------------------------| 
                                                 X2
                                             




   
        F              Dm    Am
E-----------------------------------|<--..what ends with that
B-----------------------------------|
G-----------------------------------|
D-------5--5--------5---------------|
A-------------8--7-----8--8--7------|
E-------------------------------5---|






   C                      G           D                      Em
E----------------------------------------------------------------------------|<---this part seems to be
B----------------------------------------------------------------------------|    some kind of bridge
G--5----------5--4-----5--4----------------------4-----------4---------------|
D-----5--5----------7---------5--5----7-------------7--5--7-----5--5---------|
A----------------------------------------5--5-------------------------7--7---|
E----------------------------------------------------------------------------|



Perhaps you should listen to the soundtrack to get the right timing..then it should be easy to play..hail to Guybrush :)
            

comments powered by Disqus
↑ Back to top | Misc Comp Games Tabs for Monkey Island. Lyrics for acoustic guitar and electric guitar. Tablatures and chords are parodies/interpretations of the original songs. You may use it for private study, scholarship, research or language learning purposes only