>
 >
The Halls Of King Mountain

The Halls Of King Mountain Guitar Tabs

Misc Classical - The Halls Of King Mountain chords, tabs, tablatures, lyrics

Guitar lessons | Add/correct | Request | Top 50 tabs Artists:  A B C D E F G H I J K L M N O P Q R S T U V W X Y Z 0-9

The Halls Of King Mountain Guitar Tabs – Misc Classical

CD, Sheet music, Poster

Do you like The Halls Of King Mountain? Share with your friends now
Tabs




     PART 1: PLAY TWICE

  E  ----------------------------------------------------------------------------------------------					         
  B  ----------------------------------------------------------------------------------------------
  G  ------------------------------------------------------------------------42-------------2-----
  D  -------2---------4----4-----3----3------2----2--------2------4-----4------------4---4---------
  A  245--------------5----------4----------3----245-----------5-----------------5-----------
  E  ----------------------------------------------------------------------------------------------

     PART 2: PLAY TWICE

  E  ----------------------------------------------------------------------------------------------
  B ---------------2----2-----3----3-----2----2-------------------------2----2-----3----3-----2----
  G ------134-------3----------3----------3-----------------134-------3-----------3-------3----
  D 4------------------------------------------------------4--------------------------------------
  A -----------------------------------------------------------------------------------------------
  E -----------------------------------------------------------------------------------------------

     PART 3:PLAY TWICE


  E -----------------------------------------------------------------------------------------------
  B -----------------------------------------------------------------------------------------------
  G -----------------------------------------------------------------------------------------------
  D -----------------------------------------------------------------------------------------------
  A -----------1---2-----414----55----44-------------------12----414-----5---5----4---------
  E  ---24------------------------6------6--------------24---------------------6----------------

     PART 4: PLAY ONCE
                                                                                                
                                                                                                 
  E ---------------------------------------------------------------------------------------------2--
  B ----------------------------------------------------------------------------------2--0-------3--
  G ---------------------------------------------------------------------------43-3------------4--
  D --------2-------4---4-------33--------2----2------------------2------4--4----4--------------4--
  A 245------------5----------4-----------3------------245-----------5--------------------2--
  E ---------------------------------------------------------------------------------------------2--





Comments


Popular Misc Classical tabs & chords
Austrius Tabs
Classical Exercise Tabs
Classical Piece Tabs
Classical Song Tabs
Grieg Song Tabs
Lambada Tabs
Les Jeus Interdits Tabs
Romance Anonimo Tabs
Spanish Dance Tabs
Waltz Tabs


Song lyrics



↑ Back to top | Tablatures and chords are parodies/interpretations of the original songs. You may use it for private study, scholarship, research or language learning purposes only
© 2014 AZChords.com Contact us | Privacy policy | DMCA | Add/correct tabs | Request tabs | Top 50 tabs