» » »

Misc Christmas, Winter Wonderland Tabs (ver.3)

Artists:  A B C D E F G H I J K L M N O P Q R S T U V W X Y Z # 

Winter Wonderland Tabs (ver.3)

Misc Christmas Tabs
Rating:
0/5 (0 votes)
Hard to play? Try these video lessons and learn fast.
                

Tablature by:Jack Perrin

|--3-3-3----3-3-0-3----3-3-3----3-3---3--|
|-----------------------------------6----|
|----------------------------------------|
|----------------------------------------|
|----------------------------------------|
|----------------------------------------|

 --3/7-7-7-5---3-3-3--------------------------|
 --------------------6----5-5-5-5--3-3-3-3----|
 ------------------------------------------5--|
 ---------------------------------------------| x2
 ---------------------------------------------|
 ---------------------------------------------|


|------4-4-----5-5-4---------4-4-----5-5-4-------7-7-----8-8-7---|
|-------------------5-----------------------------------------8--|
|--4-4-----6-6-----------4-4-----6-6---------7-7-----9-9---------|
|----------------------------------------------------------------|
|----------------------------------------------------------------|
|----------------------------------------------------------------|

 --7-7-7-7-5-5-5-5--3--2--1---3-3-3----3-3-0-3----3-3-3----3-3---3--|
 --------------------------------------------------------------6----|
 -------------------------------------------------------------------|
 -------------------------------------------------------------------|
 -------------------------------------------------------------------|
 -------------------------------------------------------------------|
                          [play this once 1st time]
 --3/7-7-7-5---3-3-3---- |-----------------------|
 --------------------6-- |--5-5-5-5--3-3-3-3-----|
 ----------------------- |-------------------5---|[on 2nd time through
 ----------------------- |-----------------------|repeat this 3 times then finish.]
 ----------------------- |-----------------------|
 ----------------------- |-----------------------|
!!!Now play it through again!!!

I'm sure this is right. see what you think and rate this tab!

Have fun!
            

comments powered by Disqus
↑ Back to top | Misc Christmas Tabs for Winter Wonderland. Lyrics for acoustic guitar and electric guitar. Tablatures and chords are parodies/interpretations of the original songs. You may use it for private study, scholarship, research or language learning purposes only