» » »

Misc Christmas, Winter Wonderland Tabs (ver.2)

Artists:  A B C D E F G H I J K L M N O P Q R S T U V W X Y Z # 

Winter Wonderland Tabs (ver.2)

Misc Christmas Tabs
 Rating:
4/5 (4 votes)
Winter Wonderland lessons Tabs too difficult? Try these video lessons and learn fast
                Christmas, Winter Wonderland.
  


Standard Tuning



The Christmas song, "Winter Wonderland". Read, play, repeat.





Verse
e-------------------------------------------------------------------------------------
b---5-5-5---5-5-2-5---5-5-5---5-5-3-5---5-9-9-9-7---7-5-5-5-3---2-2-2-2-0-0-0-0-------
g-------------------------------------------------------------------------------2-----
d-------------------------------------------------------------------------------------
a-------------------------------------------------------------------------------------
E-------------------------------------------------------------------------------------


Bridge
e-------2-2-----3-3-2---------2-2----3-3-2-------5-5-----6-6-5------------------------
b---------------------3----------------------------------------6----------------------
g---2-2-----4-4-----------2-2-----4-4--------5-5-----7-7------------------------------
d-------------------------------------------------------------------------------------
a-------------------------------------------------------------------------------------
E-------------------------------------------------------------------------------------


e-----5-5-1-1-3-3-----1---------------------------------------------------------------
b---6-------------1-1-----------------------------------------------------------------
g-------------------------------------------------------------------------------------
d-------------------------------------------------------------------------------------
a-------------------------------------------------------------------------------------
E-------------------------------------------------------------------------------------



  Sleigh bells ring, are you listenin'
  In the lane, snow is glistening
  A beautiful sight, we're happy tonight
  Walking in a Winter Wonderland

  Gone away is the blue bird
  In his place is the new bird
  He's singing our song, as we go along
  Walking in a Winter Wonderland

     In the meadow we can build a snowman
     Then pretend that he is Parson Brown
     He'll say "Are you married ?", We'll say "No man,
     But you can do the job when you're in town."

  Later on, we'll conspire
  As we dream by the fire
  To face unafraid, the plans that we made
  Walking in a Winter Wonderland

     In the meadow we can build a snowman
     And pretend that he's a circus clown
     We'll have lots of fun with Mr.Snowman
     Until the other kiddies knock him down

  When it snows, ain't it thrillin'
  Though you know, kids are chillin'
  We'll frolick & play, the Eskimo way
  Walking in a Winter Wonderland   

 
            
Submit corrections

comments powered by Disqus
↑ Back to top | Misc Christmas Tabs for Winter Wonderland. Lyrics for acoustic guitar and electric guitar. Tablatures and chords are parodies/interpretations of the original songs. You may use it for private study, scholarship, research or language learning purposes only