» » »

Misc Christmas, White Christmas Jazz Tabs (ver.1)

Artists:  A B C D E F G H I J K L M N O P Q R S T U V W X Y Z # 

White Christmas Jazz Tabs (ver.1)

Misc Christmas Tabs
 Rating:
4/5 (4 votes)
White Christmas Jazz lessons Tabs too difficult? Try these video lessons and learn fast
1
                This is a rather difficult tab, with lots of barre chords!
The first 2 and a half staffs are more smooth than the second part, which is much more fast
and upbeat jazz.

-||---------|---------|---------|---------|------7-8--|-10----------|-----|---
-||-5-------|-6-5-4-5-|-6-------|-7-8-----|-x-10-8-10-|-10-13-12-10-|-5---|---
-||-4-------|-5-4-3-4-|-5-------|-6-7-----|-x-9-------|-10----------|-4---|---
-||-5-------|-7-5-4-5-|-7-------|-8-9-----|-x-10------|-10----------|-5---|---
-||-3-------|-5-3-2-3-|-5-------|-6-7-----|-x-8-------|-------------|-3---|---
-||---------|---------|---------|---------|-----------|-------------|-----|---
    1 2 3 4   1 2 3 4   1 2 3 4   1 2 3 4   1 2  3 4    1  2  3  4    1234    

-|---------|---------|---5---3-|---------|-1-3---1-|-----|---------|-------5--
-|-6---3---|-5---5---|-5-------|-1-------|-1-------|-5---|-6-5-----|-6--------
-|-5---4---|-4---3---|-3-------|-2-------|-1-------|-4---|-5---7-5-|-7--------
-|-7---3---|-5---5---|-5-------|-2-------|---------|-5---|-7-------|-7--------
-|-5-------|-3---3---|-3-------|---------|---------|-3---|-5-------|-5--------
-|-----3---|---------|---------|-1-------|-1-------|-----|---------|----------
   1 2 3 4   1 2 3 4   1 2 3 4   1 2 3 4   1 2 3 4   1234  1 2 3 4   1 2 3 4  

-|---------|-----------------||-----------------------------------------------
-|-3---4---|-----------------||-----------------------------------------------
-|-4---4---|-----------------||-----------------------------------------------
-|-3---3---|-----------------||-----------------------------------------------
-|---------|---5-----0---2---||-----------------------------------------------
-|-3---3---|-----3-----------||-----------------------------------------------
   1 2 3 4   1 + 2 + 3 + 4 +                                                  

-||---------|---------|---------|---------|------7-8--|-10----------|---------
-||---5---5-|-6-5-4-5-|---6---6-|-7-8-----|---10-8-10-|-10-13-12-10-|---------
-||---4---4-|-5-4-3-4-|---5---5-|-6-7-----|---9-------|-10----------|---------
-||---5---5-|-7-5-4-5-|---7---7-|-8-9-----|---10------|-10----------|---------
-||-3-------|-5-3-2-3-|-5-------|-6-7---7-|-8---------|-------------|---------
-||-----3---|---------|-----5---|-----7---|-----------|-------------|---------
    1 2 3 4   1 2 3 4   1 2 3 4   1 2 3 4   1 2  3 4    1  2  3  4            

---------|---------|-----------------|-3-5---3-|----------8--------|-8------|-
---5---5-|---6---3-|-----5---5-----5-|-5-3---3-|------------10-----|-9------|-
---4---4-|---5---4-|-----4---3-----3-|-3-3---3-|-----9---------9---|-8------|-
---5---5-|---7---3-|-----5---5-----5-|---------|-------10----------|-10-----|-
-3-------|-5-------|-3-------3---3---|-3---3---|-8-----------------|-8------|-
-----3---|-----3---|-----------------|---------|-------------------|--------|-
 1 2 3 4   1 2 3 4   1 + 2 + 3 + 4 +   1 2 3 4   1 + 2 +  3 +  4 +   1 2 3 4  

-----------------|----------|---------|---------|-5-------|---------|---------
-----------------|----------|-5-------|-5-------|-6-------|-3-------|-4-------
-----------------|--------7-|-4-------|-5-------|-5-------|-4-------|-4-------
-----------------|-----10---|-5-------|-5-------|-7-------|-3-------|-3-------
-----------------|----------|-3-------|---------|-5-------|---------|---------
-----------------|----------|---------|-5-------|---------|-3-------|-3-------
 slow down rhythm  1 2 3  4   1 2 3 4   1 2 3 4   1 2 3 4   1 2 3 4   1 2 3 4 

------|------|------|------|---------|-0-------|------------------------------
-8----|-6----|-4----|-2----|-------1-|---1-----|------------------------------
-7----|-5----|-3----|-1----|-----0---|-----0---|------------------------------
-7----|-5----|-3----|-1----|---0-----|-------0-|------------------------------
------|------|------|------|---------|---------|------------------------------
-8----|-6----|-4----|-2----|-1-------|---------|------------------------------
 1234   1234   1234   1234   1 2 3 4   1 2 3 4                                

-8---8---|-8-------8-x-----|-10-----------------------------------------------
-6---7---|-8-------8-x-----|-10-----------------------------------------------
-7---8---|-9-------9-x-----|-9------------------------------------------------
---------|-----------------|-8------------------------------------------------
---------|-----------------|-8------------------------------------------------
---------|-----------------|-8------------------------------------------------
 1 2 3 4   1 + 2 + 3 + 4 +   1 2 3 4
            
Submit corrections

comments powered by Disqus
↑ Back to top | Misc Christmas Tabs for White Christmas Jazz. Lyrics for acoustic guitar and electric guitar. 1 Tablatures and chords are parodies/interpretations of the original songs. You may use it for private study, scholarship, research or language learning purposes only