>
 >
What Child Is This 1

What Child Is This 1 Guitar Tabs

Misc Christmas - What Child Is This 1 chords, tabs, tablatures, lyrics

Guitar lessons | Add/correct | Request | Top 50 tabs Artists:  A B C D E F G H I J K L M N O P Q R S T U V W X Y Z 0-9

What Child Is This 1 Guitar Tabs – Misc Christmas

CD, Sheet music, Poster

Do you like What Child Is This 1? Share with your friends now
ChordsChords v2Chords v3Chords v4TabsTabs v2Tabs v3Tabs v4Tabs v5Tabs v6Ukulele
----------------------------------------------------------------------------
                             What Child Is This?
----------------------------------------------------------------------------

This song has been tabbed out many times, but only the basic notes have been included. 
arrangement adds a lot of extra notes also which makes it sound fuller and itís not much 
to play.  Email me for any errors, and enjoy this Christmas Season.

This is in 4/4.

Tuning: EADGBe

    Verse 1:
e|-------------------0----0h1-0-------------------------------------------|
B|-----1-------3-----------------3-------0------------0---1---------------|
G|--2------2-----0-------0-----------0-------0----0h2---------2-2-2--1--2-|
D|-------2-------------2-----------0------------------------2-----3-------|
A|-----0-------2-----3-------------------2-----2----------0---------------|
E|-------------------------------3-----------0----------------------------|
            Verse 2:
e|------------------------------0-----0h1-0-------------------------------|
B|--0-----------1--------3p0----------------1--3--------0-------------0---|
G|----1-----2-------2--------0------0--------------0------0--0-----0h2--0-|
D|------2---------2---2-----------2--------------0---0-----------2--------|
A|--2-----------0--------2------3-----------------------2------2----------|
E|------0--------------------------------------3-------------0------------|

e|------------------------------0----------|
B|--1-----0-------------------1------------|
G|------2----2--1-------2---2-----2--------|
D|----2--------------1----2----------------|
A|--0--------------4----0-----------0------|
E|--------------0--------------------------|

Chorus:

  Note #1                                                  Note #2
e|--3--3--2-0-------------------------------------------------------------|
B|--1--1-------3--------0----------0----1------------------0--------------|
G|--0--0-----------0-------0---0h2---0------2----2--2-1-2--------1--------|
D|--2--2---------0---0--2-----------------2---2-----3---3----2-----2------|
A|--3--3-------2-------------2----------0------------------2---2----------|
E|-------------------------0---------------------------------------0------|
    Note #3                                                e e q q q
e|--3--------3----3-------2-0---------------------------------------------|
B|--1------1---1--1------------3--------0---------------0--1---0----------|
G|--0----0--------0----0-----------0------0--0------0h2----------2--1----1|
D|--2--2----------2--2-----------0---0-----------2---------2-----------4--|
A|--3-------------3------------2---------------2-----------0--------------|
E|-------------------------------------------0----------------------0-----|

e|----------0---------------|
B|--------1---1-------------|
G|--2---2-------2-----------|
D|----2-------------2-------|
A|--0-------------------0---|
E|--------------------------|

Notes:
#1 Strum these chords slow.
#2 Since the rhythm for this bar is a little tricky; Iíve labeled them eighth note (e) 
quarter note (q).
#3 Strum these fast and immediately play the arpeggios that follow.


| /  slide up
| \  slide down
| h  hammer-on
| p  pull-off
| ~  vibrato
| +  harmonic
| x  Mute note
  e  Eighth Note
  q  Quarter Note
============================================================================





Comments


Popular Misc Christmas tabs & chords
Santa Claus Is Coming To Town 3 Chords
Twelve Days Of Christmas Chords
Carol Of The Bells 2 Tabs
Carol Of The Bells 6 Tabs
God Rest You Merry Gentlemen 2 Tabs
We Three Kings 4 Tabs
What Child Is This Rock Tabs
Hark The Herald Angels Sing Ukulele
Leise Rieselt Der Schnee Ukulele
We Wish You A Merry Christmas Ukulele


Song lyrics



↑ Back to top | Tablatures and chords are parodies/interpretations of the original songs. You may use it for private study, scholarship, research or language learning purposes only
© 2014 AZChords.com Contact us | Privacy policy | DMCA | Add/correct tabs | Request tabs | Top 50 tabs