» » »

We Wish You A Merry Christmas Bass tabs (ver.2)

Artists:  A B C D E F G H I J K L M N O P Q R S T U V W X Y Z # 

We Wish You A Merry Christmas Bass tabs (ver.2)

Misc Christmas
Rating:
0/5 (0 votes)

Hard to play? Try these video lessons and learn fast.
                note: this is my first tab, i basically listened to bunch of different people play and 
together what i thought was right, comments are greatly appreciated


"we wish you a merry christmas..."

|-------------------------------------|
|-----------0020------22320-----------|
|--33532000------3222-------33----0523|
|3-----------------------------33-----|


"good tidings..."
|---------------------1---------|
|----------------200------------|
|--3332--2320---5---33-3----0523|
|3-----------3------------33----|


"we wish you a merry christmas..."
|-------------------------------------|
|-----------0020------22320-5---------|
|--33532000------3222--------5----0523|
|3-----------------------------33-----|
            
Hard to play? Try these video lessons and learn fast. | Correct




comments powered by Disqus
↑ Back to top | Tablatures and chords are parodies/interpretations of the original songs. You may use it for private study, scholarship, research or language learning purposes only