» » »

We Wish You A Merry Christmas Chords (ver.3)

Artists:  A B C D E F G H I J K L M N O P Q R S T U V W X Y Z # 

We Wish You A Merry Christmas Chords (ver.3)

Misc Christmas
Rating:
0/5 (0 votes)

Hard to play? Try these video lessons and learn fast.
                ---------------------------------------------------------------------------
                                         We Wish You a Merry Christmas
---------------------------------------------------------------------------



Tuning: Standard

>>>

Chords used:

.....G......C......A7....D7.....B7.....Em.....D5...A/G7...A13....D.....
e|---3------0------0------2------2------7------5-----3-----2-----2----|
B|---3------1------2------1------4------8------3-----2-----2-----3----|
G|---0------0------0------2------2------9------2-----0-----0-----2----|
D|---0------2------2------0------4------9------0-----2-----2-----0----|
A|---2------3------0------0------2------7------0-----0-----0-----0----|
E|---3------0--------------------2------7-----------------------------|


>>>


...G................C........
We wish you a merry Christmas

...A7...............D7.......
We wish you a merry Christmas

...B7...............Em.......
We wish you a merry Christmas

G.....C....D5...D7..G...
And a hap..py ..New Year.



.....G..........D....
Good tidings we bring

...A/G7....A13...A7.....D...
To you.....and...your...kin;

...G................D.......
We wish you a merry Christmas

G.....C....D5...D7..G...
And a hap..py ..New Year.


>>>



We want some figgy pudding

We want some figgy pudding

We want some figgy pudding

Please bring it right here!

Good tidings we bring

To you and your kin;

We wish you a merry Christmas

And a happy New Year!


>>>


We won't go until we get some

We won't go until we get some

We won't go until we get some

So bring it out here!

Good tidings we bring

To you and your kin;

We wish you a merry Christmas

And a happy New Year!

>>>



We wish you a Merry Christmas

We wish you a Merry Christmas

We wish you a Merry Christmas

And a happy New Year.

Good tidings we bring

To you and your kin;

We wish you a merry Christmas

And a happy New Year!

>>>
            
Hard to play? Try these video lessons and learn fast. | Correct




comments powered by Disqus
↑ Back to top | Tablatures and chords are parodies/interpretations of the original songs. You may use it for private study, scholarship, research or language learning purposes only