» » »

We Wish You A Merry Christmas Tabs (ver.2)

Artists:  A B C D E F G H I J K L M N O P Q R S T U V W X Y Z # 

We Wish You A Merry Christmas Tabs (ver.2)

Misc Christmas
Rating:
0/5 (0 votes)

Hard to play? Try these video lessons and learn fast.
                Just in time for christmas!

Easy to play and 100% correct.

Enjoy

e|--0-0-2-0---------2-2-4-2-0-------|-4-4-5-4-2-----------2-----|
B|-0--------4-2-2--2----------4-4---|4----------5-5-2-2-2---4-5-|
G|----------------------------------|---------------------------|
D|----------------------------------|---------------------------|
A|----------------------------------|---------------------------|
E|----------------------------------|---------------------------|

e|---0-0-0-----------------5-5-7-5---|10---------7---------------|
B|-0-------4-4-5-4--2-0---5--------8-|---5-7-7-7---9-10----------|
G|-----------------------------------|---------------------------|
D|-----------------------------------|---------------------------|
A|-----------------------------------|---------------------------|
E|-----------------------------------|---------------------------|
            
Hard to play? Try these video lessons and learn fast. | Correct




comments powered by Disqus
↑ Back to top | Tablatures and chords are parodies/interpretations of the original songs. You may use it for private study, scholarship, research or language learning purposes only