» » »

We Wish You A Merry Christmas Bass tabs (ver.1)

Artists:  A B C D E F G H I J K L M N O P Q R S T U V W X Y Z # 

We Wish You A Merry Christmas Bass tabs (ver.1)

Misc Christmas
Rating:
0/5 (0 votes)

Tabs too difficult? Try these video lessons and learn fast.
                G|--------------------------2-532------------------|
D|----532-------5--753----5------52--------5--2-3--|
A|3-5----530--5-------753----------3-0-0-5---------|
E|-------------------------------------------------|

G|------------------------2------5------------------|
D|--3-3-3-2--2-3-2-0----5----5533--3--------5--2-3--|
A|3------------------3----------------0-0-5---------|
E|--------------------------------------------------|
            
Tabs too difficult? Try these video lessons and learn fast.




comments powered by Disqus
↑ Back to top | Tablatures and chords are parodies/interpretations of the original songs. You may use it for private study, scholarship, research or language learning purposes only