» » »

Misc Christmas, We Three Kings Tabs (ver.4)

Artists:  A B C D E F G H I J K L M N O P Q R S T U V W X Y Z # 

We Three Kings Tabs (ver.4)

Misc Christmas Tabs
 Rating:
4/5 (4 votes)
We Three Kings lessons Tabs too difficult? Try these video lessons and learn fast
1
                this should be right tabbed straight out of a hymnal
2 guitars
standerd tuning for both guitars      s
                                      a
                                      m
guitar 1                              u
e--------------------------------------|               kibbey
B0--------0----------------------------|                   l
G-20--0----20--------------------------|
D---24-42----24/542--------------------|
A--------------------------------------|
E--------------------------------------|

e----------------|
B----003/10-0----|
G0022----2-2-0---|
D-------------42-|
A----------------|
E----------------|

chorus
     REPEAT
e---{--------}-----------------|
B---{--------}----010-0--------|
G---{000-0-0-}-002---2-000-0-0-|
D4/7{---0-4--}-----------------|
A---{--------}-----------------|
E---{--------}-----------------|

guitar 2
e-------------------|
B-------------------|
G0--------0---------|
D-4221002--4221/002-|
A-------------------|
E-------------------|

e------------------|
B------------------|
G------0-0---0-----|
D2-24-4---5/4-4212-|
A------------------|
E------------------|
chorus
     repeat
e---{-------}-------------|
B---{-------}-------------|
G---{-------}-000-0-------|
D0/7{000--20}----4-0-02-0-|
A---{---22--}-------2--3--|
E---{-------}-------------|
            
Submit corrections

comments powered by Disqus
↑ Back to top | Misc Christmas Tabs for We Three Kings. Lyrics for acoustic guitar and electric guitar. 1 Tablatures and chords are parodies/interpretations of the original songs. You may use it for private study, scholarship, research or language learning purposes only