» » »

We Three Kings Bass tabs (ver.1)

Artists:  A B C D E F G H I J K L M N O P Q R S T U V W X Y Z # 

We Three Kings Bass tabs (ver.1)

Misc Christmas
Rating:
0/5 (0 votes)

Hard to play? Try these video lessons and learn fast.
                i herd it in church one morning and thought it could use a bassline

riff one-play twice

G|-4-2-0-----0-----|
D|-------2-4---4-2-|
A|-----------------|
E|-----------------|

riff two- play after riff one

G|0-0-2-2-4-4-7-5-4-2-4-2-0--------0-0-0---0--0--|
D|-------------------------4-2-4s7-------0--4----|
A|-----------------------------------------------|
E|-----------------------------------------------|

if you want to play it in a lower octave, tune the E string to D
            
Hard to play? Try these video lessons and learn fast. | Correct




comments powered by Disqus
↑ Back to top | Tablatures and chords are parodies/interpretations of the original songs. You may use it for private study, scholarship, research or language learning purposes only