» » »

Misc Christmas, Up On The Housetop Tabs (ver.3)

Artists:  A B C D E F G H I J K L M N O P Q R S T U V W X Y Z # 

Up On The Housetop Tabs (ver.3)

Misc Christmas Tabs
 Rating:
4/5 (4 votes)
Up On The Housetop lessons Tabs too difficult? Try these video lessons and learn fast
1
                I tabbed this song out with my ear, so if it doesn't sound right, send me a comment at 
 Enjoy it and Merry Christmas!

s= slide
r= ring (about a second)


e|-12-12-14-12-9--5-9-12r---14-14-12-9r--12-12r---12-12-14-12-12-9--5-9-12r|
b|-------------------------------------12----------------------------------|
g|-------------------------------------------------------------------------|
D|-------------------------------------------------------------------------|
A|-------------------------------------------------------------------------|
E|-------------------------------------------------------------------------|


e|-14-14-14-12-12-9---12----10-10-14--12-12-9--7-7-10--9-9-12-5rs12-12-14--|
b|------------------12--10r------------------------------------------------|
g|-------------------------------------------------------------------------|
D|-------------------------------------------------------------------------|
A|-------------------------------------------------------------------------|
E|-------------------------------------------------------------------------|


e|12-9--10-12-14r--14-14-14-12-12-9---12-----------------------------------|
b|----------------------------------12--10r--------------------------------|
g|-------------------------------------------------------------------------|
D|-------------------------------------------------------------------------|
A|-------------------------------------------------------------------------|
E|-------------------------------------------------------------------------|


If you know how the song goes and its tempo, then I think it will sound just like it.  
not, please send me a comment.
            
Submit corrections

comments powered by Disqus
↑ Back to top | Misc Christmas Tabs for Up On The Housetop. Lyrics for acoustic guitar and electric guitar. 1 Tablatures and chords are parodies/interpretations of the original songs. You may use it for private study, scholarship, research or language learning purposes only