» » »

Misc Christmas, Up On The Housetop Tabs (ver.1)

Artists:  A B C D E F G H I J K L M N O P Q R S T U V W X Y Z # 

Up On The Housetop Tabs (ver.1)

Misc Christmas Tabs
 Rating:
4/5 (4 votes)
Up On The Housetop lessons Tabs too difficult? Try these video lessons and learn fast
1
                Intro.
E|------------------------------------------|
B|------------------------------------------|
G|------------------------------------------|
D|------------------------------------------|
A|---9-9-11-9------6-9~---11-11-9-6---9-9~--|
e|------------11-7------------------9-------|

E|------------------------------------------|
B|------------------------------------------|
G|------------------------------------------|
D|------------------------------------------|
A|---9-9-11-9------6-9~---11-11-9-6---9-----|
e|------------11-7------------------9---7~--|

Chorus.
E|-------------------------------------|
B|-------------------------------------|
G|-------------------------------------|
D|---1-1-4~-2-2-2----------------------|
A|----------------4~-1-1-4~-2-2-2------|
e|--------------------------------4/7--|

E|-----------------------------------------------|
B|-----------------------------------------------|
G|-----------------------------------------------|
D|-----------------------------------------------|
A|---9-9-11-9----6-9-11~---11-11-11-9-9-6---9-7~-|
e|------------11--------------------------9------|
            
Submit corrections

comments powered by Disqus
↑ Back to top | Misc Christmas Tabs for Up On The Housetop. Lyrics for acoustic guitar and electric guitar. 1 Tablatures and chords are parodies/interpretations of the original songs. You may use it for private study, scholarship, research or language learning purposes only