>
 >
Twelve Days Of Christmas 1

Twelve Days Of Christmas 1 Guitar Tabs

Misc Christmas - Twelve Days Of Christmas 1 chords, tabs, tablatures, lyrics

Guitar lessons | Add/correct | Request | Top 50 tabs Artists:  A B C D E F G H I J K L M N O P Q R S T U V W X Y Z 0-9

Twelve Days Of Christmas 1 Guitar Tabs – Misc Christmas

CD, Sheet music, Poster

Do you like Twelve Days Of Christmas 1? Share with your friends now
ChordsChords v2Chords v3Chords v4Chords v5TabsTabs v2Tabs v3Tabs v4Ukulele
The First Day
|-----------------------------------------------------------------------|
|-----------------------------------------------------------------------|
|-----------------------------------------------------------------------|
|----------------------------------12------------12-14------------------|
|-----------15-15-15-14---12-14-15----12-14---12-------15-14----12------|
|--15-15-15--------------------------------------------------15----15~--|



The Second Day
|-----------------------------------------------------------------------|
|-----------------------------------------------------------------------|
|-----------------------------------------------------------------------|
|----------------------------------12---------12------------------12-14-|
|-----------15-15-15-14---12-14-15----12-14------12-14-15------12-------|
|--15-15-15-------------------------------------------------15----------|

|------------------|
|------------------|
|------------------|
|------------------|
|-15-14----12------|
|-------15----15~--|



The Third Day
|-----------------------------------------------------------------------|
|-----------------------------------------------------------------------|
|-----------------------------------------------------------------------|
|----------------------------------12---------12----------12------------|
|-----------15-15-15-14---12-14-15----12-14------12-14-15----12-14-15---|
|--15-15-15-------------------------------------------------------------|

|------------------------------|
|------------------------------|
|------------------------------|
|-------12-14------------------|
|----12-------15-14----12------|
|-15----------------15----15~--|



The Fourth Day
|-----------------------------------------------------------------------|
|-----------------------------------------------------------------------|
|-----------------------------------------------------------------------|
|----------------------------------12---------12----------12------------|
|-----------15-15-15-14---12-14-15----12-14------12-14-15----12-14-15---|
|--15-15-15-------------------------------------------------------------|

|-------------------------------------------|
|-------------------------------------------|
|-------------------------------------------|
|-12-----------------12-14------------------|
|---12-14-15------12-------15-14----12------|
|--------------15----------------15----15~--|



The Fifth Day
|-----------------------------------------------------------------------|
|-----------------------------------------------------------------------|
|-----------------------------------------------------------------------|
|----------------------------------12---------12~-14~-----12~~----------|
|-----------15-15-15-14---12-14-15----12-14-----------15~---------------|
|--15-15-15-------------------------------------------------------------|

|-----------------------------------------------------------------------|
|-----------------------------------------------------------------------|
|-----------------------------------------------------------------------|
|-12-----------------------------------------------12-14----------------|
|----15-14-12-----15----15--12-----------------12-------15-14----12-----|
|-------------15-----12--------15-14-12-10--15----------------15----15~-|



The Sixth Day
|-----------------------------------------------------------------------|
|-----------------------------------------------------------------------|
|-----------------------------------------------------------------------|
|---------------------------------12--------12-------------12-14----12~-|
|----------15-15-15-14---12-14-15----12-14-----12-14-15-12-------15-----|
|-15-15-15--------------------------------------------------------------|

|-----------------------------------------------------------------------|
|-----------------------------------------------------------------------|
|-----------------------------------------------------------------------|
|-12-----------------------------------------------12-14----------------|
|----15-14-12-----15----15--12-----------------12-------15-14----12-----|
|-------------15-----12--------15-14-12-10--15----------------15----15~-|



The Seventh Day
|-------------------------------------------------------------------------|
|-------------------------------------------------------------------------|
|-------------------------------------------------------------------------|
|---------------------------------12--------12-------------12-------------|
|----------15-15-15-14---12-14-15----12-14-----12-14-15-12----12-14-15-12-|
|-15-15-15----------------------------------------------------------------|

|-------------------------------------------------------------------------|
|-------------------------------------------------------------------------|
|-------------------------------------------------------------------------|
|-12-14----12~--12------------------------------------------------12-14---|
|-------15---------15-14-12-----15----------12-----------------12---------|
|---------------------------15------12--15-----15-14-12-10--15------------|

|------------------|
|------------------|
|------------------|
|------------------|
|-15-14----12------|
|-------15----15~--|



The Eighth Day
|-------------------------------------------------------------------------|
|-------------------------------------------------------------------------|
|-------------------------------------------------------------------------|
|---------------------------------12--------12-------------12-------------|
|----------15-15-15-14---12-14-15----12-14-----12-14-15-12----12-14-15-12-|
|-15-15-15----------------------------------------------------------------|

|-------------------------------------------------------------------------|
|-------------------------------------------------------------------------|
|-------------------------------------------------------------------------|
|-12--------------12-14----12~--12----------------------------------------|
|----12-14-15-12--------15---------15-14-12----15-------12----------------|
|-------------------------------------------15----12-15----15-14-12-10----|

|------------------------------|
|------------------------------|
|------------------------------|
|-------12-14------------------|
|----12-------15-14----12------|
|-15----------------15----15~--|




The Ninth Day
|-------------------------------------------------------------------------|
|-------------------------------------------------------------------------|
|-------------------------------------------------------------------------|
|---------------------------------12--------12-------------12-------------|
|----------15-15-15-14---12-14-15----12-14-----12-14-15-12----12-14-15-12-|
|-15-15-15----------------------------------------------------------------|

|------------------------------------------------------------------------|
|------------------------------------------------------------------------|
|------------------------------------------------------------------------|
|-12-------------12--------------12-14----12~--12------------------------|
|----12-14-15-12----12-14-15-12--------15---------15-14-12----15---------|
|----------------------------------------------------------15----12-15---|

|----------------------------------------------|
|----------------------------------------------|
|----------------------------------------------|
|-----------------------12-14------------------|
|-12-----------------12-------15-14----12------|
|----15-14-12-10--15----------------15----15~--|




The Tenth Day
|-------------------------------------------------------------------------|
|-------------------------------------------------------------------------|
|-------------------------------------------------------------------------|
|---------------------------------12--------12-------------12-------------|
|----------15-15-15-14---12-14-15----12-14-----12-14-15-12----12-14-15-12-|
|-15-15-15----------------------------------------------------------------|

|--------------------------------------------------------------|
|--------------------------------------------------------------|
|--------------------------------------------------------------|
|-12-------------12-------------12--------------12-14----12~---|
|----12-14-15-12----12-14-15-12----12-14-15-12--------15-------|
|--------------------------------------------------------------|

|-------------------------------------------------------------------------|
|-------------------------------------------------------------------------|
|-------------------------------------------------------------------------|
|-12-----------------------------------------------12-14------------------|
|----15-14-12----15------15--12-----------------12-------15-14----12------|
|-------------15-----12---------15-14-12-10--15----------------15----15~--|




The Eleventh Day
|-------------------------------------------------------------------------|
|-------------------------------------------------------------------------|
|-------------------------------------------------------------------------|
|---------------------------------12--------12-------------12-------------|
|----------15-15-15-14---12-14-15----12-14-----12-14-15-12----12-14-15-12-|
|-15-15-15----------------------------------------------------------------|

|--------------------------------------------------------------------------|
|--------------------------------------------------------------------------|
|--------------------------------------------------------------------------|
|-12-------------12------------12-------------12--------------12-14----12~-|
|---12-14-15-12----12-14-15-12----12-14-15-12----12-14-15-12--------15-----|
|--------------------------------------------------------------------------|

|-------------------------------------------------------------------------|
|-------------------------------------------------------------------------|
|-------------------------------------------------------------------------|
|-12-----------------------------------------------12-14------------------|
|----15-14-12----15------15--12-----------------12-------15-14----12------|
|-------------15-----12---------15-14-12-10--15----------------15----15~--|



The Twelfth Day
|-------------------------------------------------------------------------|
|-------------------------------------------------------------------------|
|-------------------------------------------------------------------------|
|---------------------------------12--------12-------------12-------------|
|----------15-15-15-14---12-14-15----12-14-----12-14-15-12----12-14-15-12-|
|-15-15-15----------------------------------------------------------------|

|--------------------------------------------------------------------------|
|--------------------------------------------------------------------------|
|--------------------------------------------------------------------------|
|-12-------------12------------12-------------12-------------12------------|
|---12-14-15-12----12-14-15-12---12-14-15-12----12-14-15-12----12-14-15-12-|
|--------------------------------------------------------------------------|

|----------------------------------------------------------------------|
|----------------------------------------------------------------------|
|----------------------------------------------------------------------|
|-12-14----12~--12-----------------------------------------------12-14-|
|-------15---------15-14-12----15------15--12-----------------12-------|
|---------------------------15-----12---------15-14-12-10--15----------|

|------------------|
|------------------|
|------------------|
|------------------|
|-15-14----12------|
|-------15----15~--|





Comments


Popular Misc Christmas tabs & chords
Christmas Baby Please Come Home Chords
Christmas In Dixie Chords
Have Yourself A Merry Little Christmas Chords
O Christmas Tree 2 Chords
Silent Night Chords
The First Noel 2 Chords
God Rest Ye Merry Gentlemen 1 Tabs
Joy To The World 6 Tabs
Sydmeeni Joulun Teen Tabs
Hark The Herald Angels Sing Ukulele


Song lyrics



↑ Back to top | Tablatures and chords are parodies/interpretations of the original songs. You may use it for private study, scholarship, research or language learning purposes only
© 2014 AZChords.com Contact us | Privacy policy | DMCA | Add/correct tabs | Request tabs | Top 50 tabs