» » »

Misc Christmas, Tipp Tapp Tabs (ver.2)

Artists:  A B C D E F G H I J K L M N O P Q R S T U V W X Y Z # 

Tipp Tapp Tabs (ver.2)

Misc Christmas Tabs
Rating:
0/5 (0 votes)
Tipp Tapp lessons Tabs too difficult? Try these video lessons and learn fast
                Enjoy = )

Intro
|--------------2----5--5--------|
|-3-3---3-2-3-5-3--------3------|whammy
|--2-2--------------------------|
|-------------------------------|
|-------------------------------|
|-------------------------------|

Riff 1
|------------2---5--3--2-------|
|3-3--3-2-3-5-3----------5-----|
|-2-2--------------------------|
|------------------------------|
|------------------------------|
|------------------------------|

Riff 2
|------------------7--5--3-----|
|-5-5--5-4-5-7-8-5----------7--|
|--4-4-------------------------|
|------------------------------|
|------------------------------|
|------------------------------|

End
|--------------2----5--5--------|
|-3-3---3-2-3-5-3--------3------|whammy
|--2-2--------------------------|
|-------------------------------|
|-------------------------------|
|-------------------------------|


vers 2

Riff 1
|------------2---5--3--2-------|
|3-3--3-2-3-5-3----------5-----|
|-2-2--------------------------|
|------------------------------|
|------------------------------|
|------------------------------|
PM.............................
Riff 2
|------------------7--5--3-----|
|-5-5--5-4-5-7-8-5----------7--|
|--4-4-------------------------|
|------------------------------|
|------------------------------|
|------------------------------|
PM.............................
End
|--------------2----5--5--------|
|-3-3---3-2-3-5-3--------3------|whammy
|--2-2--------------------------|
|-------------------------------|
|-------------------------------|
|-------------------------------|
PM........................


Distortion
Riff 1
|------------2---5--3--2-------|
|3-3--3-2-3-5-3----------5-----|
|-2-2--------------------------|
|------------------------------|
|------------------------------|
|------------------------------|

Riff 2
|------------------7--5--3-----|
|-5-5--5-4-5-7-8-5----------7--|
|--4-4-------------------------|
|------------------------------|
|------------------------------|
|------------------------------|

End
|--------------2----5--5--------|
|-3-3---3-2-3-5-3--------3------|whammy
|--2-2--------------------------|
|-------------------------------|
|-------------------------------|
|-------------------------------|
            
Submit corrections

comments powered by Disqus
↑ Back to top | Misc Christmas Tabs for Tipp Tapp. Lyrics for acoustic guitar and electric guitar. Tablatures and chords are parodies/interpretations of the original songs. You may use it for private study, scholarship, research or language learning purposes only