>
 >
Tipp Tapp

Tipp Tapp Guitar Tabs

Misc Christmas - Tipp Tapp chords, tabs, tablatures, lyrics

Guitar lessons | Add/correct | Request | Top 50 tabs Artists:  A B C D E F G H I J K L M N O P Q R S T U V W X Y Z 0-9

Tipp Tapp Guitar Tabs – Misc Christmas

CD, Sheet music, Poster

Do you like Tipp Tapp? Share with your friends now
TabsTabs v2
Hi guys this a funny song to play enjoy IT :)

Intro
|--------------2----5--5--------|
|-2-2---3-2-3-5-3--------3------|whammy
|--3-3--------------------------|
|-------------------------------|
|-------------------------------|
|-------------------------------|

Riff 1
|------------2---5--3--2-------|
|2-2--3-2-3-5-3----------5-----|
|-3-3--------------------------|
|------------------------------|
|------------------------------|
|------------------------------|

Riff 2
|------------------7--5--3-----|
|-5-5--5-4-5-7-8-5----------7--|
|--4-4-------------------------|
|------------------------------|
|------------------------------|
|------------------------------|

End
|--------------2----5--5--------|
|-2-2---3-2-3-5-3--------3------|whammy
|--3-3--------------------------|
|-------------------------------|
|-------------------------------|
|-------------------------------|


vers 2

Riff 1
|------------2---5--3--2-------|
|2-2--3-2-3-5-3----------5-----|
|-3-3--------------------------|
|------------------------------|
|------------------------------|
|------------------------------|
PM.............................
Riff 2
|------------------7--5--3-----|
|-5-5--5-4-5-7-8-5----------7--|
|--4-4-------------------------|
|------------------------------|
|------------------------------|
|------------------------------|
PM.............................
End
|--------------2----5--5--------|
|-2-2---3-2-3-5-3--------3------|whammy
|--3-3--------------------------|
|-------------------------------|
|-------------------------------|
|-------------------------------|
PM........................


Distortion
Riff 1
|------------2---5--3--2-------|
|2-2--3-2-3-5-3----------5-----|
|-3-3--------------------------|
|------------------------------|
|------------------------------|
|------------------------------|

Riff 2
|------------------7--5--3-----|
|-5-5--5-4-5-7-8-5----------7--|
|--4-4-------------------------|
|------------------------------|
|------------------------------|
|------------------------------|

End
|--------------2----5--5--------|
|-2-2---3-2-3-5-3--------3------|whammy
|--3-3--------------------------|
|-------------------------------|
|-------------------------------|
|-------------------------------|





Comments


Popular Misc Christmas tabs & chords
Natural Snow Buildings - Carved Heart Chords
The First Noel 2 Chords
Weihnachtsmann And Co Kg Theme Chords
A Holly Jolly Christmas 1 Tabs
Angels We Have Heard Tabs
Christmas Eve 1 Tabs
Do You Hear What I Hear Tabs
God Rest Ye Merry Gentlemen Tabs
Gaudete Ukulele
Have Yourself A Merry Little Christmas Ukulele


Song lyrics



↑ Back to top | Tablatures and chords are parodies/interpretations of the original songs. You may use it for private study, scholarship, research or language learning purposes only
© 2014 AZChords.com Contact us | Privacy policy | DMCA | Add/correct tabs | Request tabs | Top 50 tabs