» » »

Misc Christmas, The First Nowell Bass tabs (ver.1)

Artists:  A B C D E F G H I J K L M N O P Q R S T U V W X Y Z # 

The First Nowell Bass tabs (ver.1)

Misc Christmas Tabs
 Rating:
4/5 (4 votes)
The First Nowell lessons Tabs too difficult? Try these video lessons and learn fast
                A Christmas Classic.

1. "The first Nowell, The Angel did say, was to certain poor shepards in fields as they lay"

G|---------------------------------------------------------------------------|
D|--------------0--3-2--0---------0-2-3-2-0----0--2---3----------------------|
A|-0------0-3--------------3-----------------3----------3--2---0-------------|
E|-----1---------------------------------------------------------------------|


1 "In fields where they lay, keeping their sheep, On a cold winter's night, that was so deep"

G|--------------------------------------------------------------------------|
D|-----------0------3-2--0------------0-2--3-20------2-3--2-----------------|
A|-0----0-3-----------------3--------------------3------------2---0---------|
E|---1----------------------------------------------------------------------|

Chorus: "Nowell, Nowell, Nowell, Nowell, Born is the King of Israel"

G|--------------------------------------------------------------------------|
D|---------------3--0--0-------------3--2--0----0-2---3---------------------|
A|-0----0---3--------------3------------------3-----------3--2--0-----------|
E|---1----------------------------------------------------------------------|
            
Submit corrections

comments powered by Disqus
↑ Back to top | Misc Christmas Bass for The First Nowell. Lyrics for acoustic guitar and electric guitar. Tablatures and chords are parodies/interpretations of the original songs. You may use it for private study, scholarship, research or language learning purposes only