» » »

First Noel Tabs (ver.1)

Artists:  A B C D E F G H I J K L M N O P Q R S T U V W X Y Z # 

First Noel Tabs (ver.1)

Misc Christmas
Rating:
0/5 (0 votes)

Hard to play? Try these video lessons and learn fast.
                The First Noel, traditional English carol
arranged by John E. Norlin for two guitars
(also note that the second part could be played on a bass, if desired)

3/4 time

e||------|------------|------------|------------|------------|------------|
B||------|------------|--------0-2-|3---2---0---|--------0-2-|3---2---0---|
G||o-----|----------0-|2--(2)------|------------|2--(2)------|------------|
D||o-4-2-|0-----2-4---|------------|------------|0--(0)------|------------|
A||--0---|--------0---|4--(4)--2---|0--(0)--2-4-|--------2-0-|0--(0)--4---|
E||----3-|2--(2)------|------------|------------|------------|------------|
     X    X   X   X    X   X   X    X   X   X    X   X   X    X   X   X   
e||------|------------|------------|------------|------------|------------|
B||------|------------|------------|------------|------------|------------|
G||o-----|------------|----2---0---|------------|------------|2-------0---|
D||o-0---|0--(0)--0---|------------|4--(4)--0---|4--(4)--0-2-|----4-------|
A||------|0--(0)--2---|0-----------|0--(0)------|0--(0)------|----5-------|
E||--2---|------------|0--(0)--0---|--------3---|--------3---|2-------0---|


e-------------|------------|--------||----|------------|------------|
B-----0---2---|3-----------|--------||----|------------|--------3-2-|
G-2-----------|----2---0---|-------o||----|----------0-|2--(2)------|
D-0-----------|----0-------|4--(4)-o||4-2-|0-----2-4---|------------|
A-----2-------|0-------0---|0--(0)--||0---|--------2---|0--(0)--0---|
E---------3---|------------|--------||--3-|2--(2)------|------------|
  X   X   X    X   X   X    X   X     X    X   X   X    X   X   X
e-------------|------------|--------||----|------------|------------|
B-------------|------------|--------||----|------------|------------|
G-2-------0---|------------|-------o||----|------------|------------|
D-----0-------|4---4---2---|0--(0)-o||----|0--(0)--0---|4--(4)--4---|
A-------------|----0---0---|0--(0)--||4---|0--(0)--2---|4--(4)--5---|
E-2---3---0---|2-3---------|--------||5---|------------|------------|


e-------------|------------|------------|------------|------------|--------
B-0-------0---|------------|3---2---0---|----0---2---|3-----------|--------
G-------------|2------(2)--|------------|2-----------|----2---0---|--------
D---------0-2-|4-------2---|0---0---0---|0--(0)------|------------|4--(4)--
A-2-----4-----|------------|------------|------------|0--(0)--0---|0--(0)--
E-------------|------------|------------|--------3---|------------|--------
  X   X   X    X   X   X    X   X   X    X   X   X    X   X   X    X   X
e-------------|------------|------------|------------|------------|--------
B-0--(0)--0---|------------|------------|------------|------------|--------
G-------------|--------2---|--------0---|--------0---|------------|--------
D-------------|4--(4)------|4---4-------|4--(4)------|4---2--(2)--|0--(0)--
A-------0-2-4-|5--(5)--4---|2---0-------|5--(5)------|----0---0---|0--(0)--
E-3--(3)------|------------|--------3---|--------0---|2-3---------|--------
            
Hard to play? Try these video lessons and learn fast. | Correct




comments powered by Disqus
↑ Back to top | Tablatures and chords are parodies/interpretations of the original songs. You may use it for private study, scholarship, research or language learning purposes only