» » »

Stay Awake Tabs (ver.1)

Artists:  A B C D E F G H I J K L M N O P Q R S T U V W X Y Z # 

Stay Awake Tabs (ver.1)

Misc Christmas
Rating:
0/5 (0 votes)

Hard to play? Try these video lessons and learn fast.
                E|--------X-X--------X-X--------------------------X-X-------X-X-------------|
B|--------X-X--------X—X--------1-----------------X-X-------X-X—--1---------|
G|--------X-X-2-0----X-X---0-2-3--3-2-0-2-3-------X-X-2-0—--X-X-----3-2-0---|
D|-----3--X-X-----3--X—X--3--------------------3--X-X-----3-X-X-----------3-|
A|-3-3----X-X--------X-X-3------------------3-3-—-X-X-------X-X-3-----------|
E|--------X-X--------X-X--------------------------X-X-------X-X-------------|



E|------------------------------|
B|---------------------1--------|
G|------0--0-0-2---------3-2-0--|
D|--3-3-----------3--3---------3|
A|-------3----------------------|
E|------------------------------|


Stay awake, be ready.
                
You do not know the hour when the Lord is coming.

Stay awake, be ready.

The Lord is coming soon!

Alleluia!  Alleluia!

The Lord is coming soon.
            
Hard to play? Try these video lessons and learn fast. | Correct




comments powered by Disqus
↑ Back to top | Tablatures and chords are parodies/interpretations of the original songs. You may use it for private study, scholarship, research or language learning purposes only