» » »

Misc Christmas, Silent Nite Tabs (ver.1)

Artists:  A B C D E F G H I J K L M N O P Q R S T U V W X Y Z # 

Silent Nite Tabs (ver.1)

Misc Christmas Tabs
Rating:
0/5 (0 votes)
Silent Nite lessons Tabs too difficult? Try these video lessons and learn fast
                This is my first tablature...sorry if its wrong...but it sounds right to me


---------|-------|------|------|-----------|---------|------------------------
---------|-------|------|------|-----------|---------|------------------------
---------|-------|2-2---|0-0---|-----0-----|---------|------------------------
-0-2-0---|0-2-0--|----4-|----0-|-2-2---4-2-|0-2-0----|------------------------
-------2-|------2|------|------|-----------|------2--|------------------------
---------|-------|------|------|-----------|---------|------------------------
                                                                              

----------|--------|---------|------|------|----------------------------------
----------|--------|------1--|------|------|----------------------------------
-----0----|--------|--2-2---2|--0-4-|-0----|----------------------------------
-2-2---4-2|-0-2-0--|---------|4-----|---0--|0---------------------------------
----------|-------2|---------|------|-----2|--2-0-----------------------------
----------|--------|---------|------|------|------3---------------------------
            
Submit corrections

comments powered by Disqus
↑ Back to top | Misc Christmas Tabs for Silent Nite. Lyrics for acoustic guitar and electric guitar. Tablatures and chords are parodies/interpretations of the original songs. You may use it for private study, scholarship, research or language learning purposes only