» » »

Misc Christmas, Silent Night Tabs (ver.8)

Artists:  A B C D E F G H I J K L M N O P Q R S T U V W X Y Z # 

Silent Night Tabs (ver.8)

Misc Christmas Tabs
 Rating:
4/5 (4 votes)
Silent Night lessons Tabs too difficult? Try these video lessons and learn fast
                Hey everyone! My friend and I were asked to do a Christ centered musical number for a 
Christmas party, so I came up with this tab for on of my favorite Christmas songs, Silent 
Night.  Merry Christmas!

Tuning: Standard
Capo: None

Intro:

  G
|--------3-------3-------3-------3|
|----3-------3-------3-------3----|
|------0-------0-------0-------0--|
|---------------------------------|
|---------------------------------|
|--3-------3-------3-------3------|


Verse 1

   G                                 D7              C     G
|--------3-------3-------3-------3-------3-------3-------2-------2-------2-------3------3|
|----------------------------3-------3-------3-------1-------1-------1-------1-------3---|
|----0-------0-------0---------0-------0-------0-------2-------2-------2-------0-------0-|
|------0-------0-------0---------------------------0-------0-------0-------2-------0-----|
|----------------------------------------------------------------------------------------|
|--3-------3-------3-------3-------3-------3---------------------------------------------|


Silent night, holy night, all is calm, all is bright

  C            G                C           G      Em
|--------0-----3-----------3-------3-------3-------0-----3-----------3------------------|
|----1-------1---------3-------3-------3-------1-------1---------3-------------0-------0|
|------0---------0-------0-------0-------0-------0---------0-------0-------0-------0----|
|--2-------2-------2-------------------------2-------2-------2---------------2-------2--|
|------------------------------------------------------------------------2-------2------|
|--------------------3-------3-------3-------------------------3-------3----------------|

Round yon Virgin Mother and Child, Holy Infant so tender and mild

  D                  C            G       D7       G
|--------2-------2--------------0-------3-------3---------2-----------3-------3-------3|
|----1-------1-------1------1-------1-------3---------1-----------3-------3-------3----|
|------2-------2-------2------0-------0-------0---------2-----2-----0-------0-------0--|
|--0-------0-------0------2-------2-----------------0-------0--------------------------|
|--------------------------------------------------------------------------------------|
|-----------------------------------------3-------3-------------3-------3-------3------|

Sleep in heavenly peace, Sleep in heavenly peace!

Verse 2

   G                                 D7              C     G
|--------3-------3-------3-------3-------3-------3-------2-------2-------2-------3------3|
|----------------------------3-------3-------3-------1-------1-------1-------1-------3---|
|----0-------0-------0---------0-------0-------0-------2-------2-------2-------0-------0-|
|------0-------0-------0---------------------------0-------0-------0-------2-------0-----|
|----------------------------------------------------------------------------------------|
|--3-------3-------3-------3-------3-------3---------------------------------------------|

Silent night, holy night! Shepherds quake at the sight

  C            G                C           G      Em
|--------0-----3-----------3-------3-------3-------0-----3-----------3------------------|
|----1-------1---------3-------3-------3-------1-------1---------3-------------0-------0|
|------0---------0-------0-------0-------0-------0---------0-------0-------0-------0----|
|--2-------2-------2-------------------------2-------2-------2---------------2-------2--|
|------------------------------------------------------------------------2-------2------|
|--------------------3-------3-------3-------------------------3-------3----------------|

Glories stream from heaven afar, Heavenly hosts sing Alleluia!

  D                  C            G       D7       G
|--------2-------2--------------0-------3-------3---------2-----------3-------3-------3|
|----1-------1-------1------1-------1-------3---------1-----------3-------3-------3----|
|------2-------2-------2------0-------0-------0---------2-----2-----0-------0-------0--|
|--0-------0-------0------2-------2-----------------0-------0--------------------------|
|--------------------------------------------------------------------------------------|
|-----------------------------------------3-------3-------------3-------3-------3------|

Christ, the Saviour is born, Christ, the Saviour is born!


Verse 3

   G                                 D7              C     G
|--------3-------3-------3-------3-------3-------3-------2-------2-------2-------3------3|
|----------------------------3-------3-------3-------1-------1-------1-------1-------3---|
|----0-------0-------0---------0-------0-------0-------2-------2-------2-------0-------0-|
|------0-------0-------0---------------------------0-------0-------0-------2-------0-----|
|----------------------------------------------------------------------------------------|
|--3-------3-------3-------3-------3-------3---------------------------------------------|

Silent night, holy night, Son of God, love's pure light

  C            G                C           G      Em
|--------0-----3-----------3-------3-------3-------0-----3-----------3------------------|
|----1-------1---------3-------3-------3-------1-------1---------3-------------0-------0|
|------0---------0-------0-------0-------0-------0---------0-------0-------0-------0----|
|--2-------2-------2-------------------------2-------2-------2---------------2-------2--|
|------------------------------------------------------------------------2-------2------|
|--------------------3-------3-------3-------------------------3-------3----------------|

Radiant beams from Thy holy face, With the dawn of redeeming grace

  D                  C            G       D7       G
|--------2-------2--------------0-------3-------3---------2-----------3-------3-------3|
|----1-------1-------1------1-------1-------3---------1-----------3-------3-------3----|
|------2-------2-------2------0-------0-------0---------2-----2-----0-------0-------0--|
|--0-------0-------0------2-------2-----------------0-------0--------------------------|
|--------------------------------------------------------------------------------------|
|-----------------------------------------3-------3-------------3-------3-------3------|

Jesus, Lord, at Thy birth, Jesus, Lord, at Thy birth!

Enjoy! And Merry Christmas! :)
            
Submit corrections

comments powered by Disqus
↑ Back to top | Misc Christmas Tabs for Silent Night. Lyrics for acoustic guitar and electric guitar. Tablatures and chords are parodies/interpretations of the original songs. You may use it for private study, scholarship, research or language learning purposes only