» » »

Misc Christmas, Silent Night Tabs (ver.6)

Artists:  A B C D E F G H I J K L M N O P Q R S T U V W X Y Z # 

Silent Night Tabs (ver.6)

Misc Christmas Tabs
 Rating:
4/5 (4 votes)
Silent Night lessons Tabs too difficult? Try these video lessons and learn fast
1
                A little cheery version of Silent Night. Merry christmas and enjoy :)

|---------------------------------|---------------------------------|
|--5------------7--5--------------|------------5------------7--5----|
|-----------------------6---------|---------------------------------|
|-------7----------7---------7----|-------7---------7----------7----|
|--0---------0----------0---------|--0---------0---------0----------|
|---------------------------------|---------------------------------|


                                                                    
|----------------------7---------|-----7-------4------------4-------|
|--------------------------------|----------------------------------|
|--6-----------------------------|----------------------------------|
|-------7---------7---------6----|--------6---------6----------6----|
|--0---------0-------------------|----------------------------------|
|----------------------0---------|--0----------0---------0----------|


                                                                    
|--5------------5-----------------|---------------------------------|
|--5------------5-------5---------|------------7------------7-------|
|-----------------------6---------|------------7--------------------|
|-------7----------7---------7----|-------7---------0----------0----|
|---------------------------------|------------0---------0----------|
|--5---------5----------5---------|--5------------------------------|


                                                                     
|----------------------------------|---------------------------------|
|--10------------9-------5---------|-----7---------------------------|
|----------------------------------|-------------6-------------------|
|--------0----------0---------7----|--------7---------7---------7----|
|--0----------0----------0---------|--0----------0---------0---------|
|----------------------------------|---------------------------------|


                                                                       
|--7------------7-------10-----------|-----0-------5-------------------|
|--------------------------------10--|-------------5-------------------|
|------------------------------------|-------------6-------------------|
|-------6----------6----------0------|--------0---------7---------7----|
|------------------------------------|---------------------------------|
|--0---------0----------0------------|--0----------5---------5---------|


                                                                     
|--9-------------------5---------|--------------0--------------------|
|--8-------------------5---------|-----5------------------------0----|
|--9-------------------6---------|-----------6---------------1-------|
|-------7---------7---------7----|--------7----------2---------------|
|--------------------------------|-----------------------------------|
|--0---------0---------5---------|--5-----------0---------0----------|


                                                        
|-----------------------5----|--------------------------|
|----------------------------|--------------------------|
|--2-------------------------|--------------------------|
|--2-------------------------|--------------------------|
|--0-------------------------|--------------------------|
|----------------------------|--------------------------|
            
Submit corrections

comments powered by Disqus
↑ Back to top | Misc Christmas Tabs for Silent Night. Lyrics for acoustic guitar and electric guitar. 1 Tablatures and chords are parodies/interpretations of the original songs. You may use it for private study, scholarship, research or language learning purposes only