» » »

Silent Night Bass tabs (ver.3)

Artists:  A B C D E F G H I J K L M N O P Q R S T U V W X Y Z # 

Silent Night Bass tabs (ver.3)

Misc Christmas
Rating:
0/5 (0 votes)

Hard to play? Try these video lessons and learn fast.
                
Christmas Songs-Silent Night(submitted By:Alex.H)

G---------------7-7-4--5-5-0----------------------------------------
D-5-7----5-7------------------7-7-10-9-7-5-7-5---7-7-10-9-7-5-7-5---
A-----7------7---------------------------------7------------------7-
E-------------------------------------------------------------------

G-7-7-10-9-7-5-9--5-------------
D-------------------5-----------
A--------------------7-10-7-----
E---------------------------10-8

Im pretty sure it's allright.

================================================================================
            
Hard to play? Try these video lessons and learn fast. | Correct




comments powered by Disqus
↑ Back to top | Tablatures and chords are parodies/interpretations of the original songs. You may use it for private study, scholarship, research or language learning purposes only