» » »

Silent Night Tabs (ver.3)

Artists:  A B C D E F G H I J K L M N O P Q R S T U V W X Y Z # 

Silent Night Tabs (ver.3)

Misc Christmas
Rating:
0/5 (0 votes)
Tabs too difficult? Try these video lessons and learn fast.
                #



   *
  ***      Hey everybody, lets play some Christmas music!
 *****
*******
   I                        SILENT NIGHT

				by
			Joseph Mohr & Franz Gruber

Basic Accompaniment pattern: change along with chords.
   _________  ____________
   |   |   |  |     |    |
|-------------------3---------|
|----------0-------------0----|
|------0------0---------------|
|-----------------------------|
|-----------------------------|
|--3--------------------------|

The song is in 3/4 time in the key of G.
This arrangement contains the melody notes along with additional notes to make
it sound good on one guitar.  For a duet, add the above accompaniment.

  G
|-------0-----|----------------|-------0-----|----------------|
|-3--------3--|-0--------0-----|-3--------3--|-0--------1--0--|
|-0--0--------|-0--0--------0--|-0--0--------|-0--0-----------|
|-0-----------|-0-----0--------|-0-----------|-0-----0--------|
|-2-----------|-2--------------|-2-----------|-2--------------|
|-3-----------|-3--------------|-3-----------|-3--------------|
  Si -    lent  Night            Ho -     ly   Night

  D7                    G                            C
|-5-----5--|-2--------|-3------3--|----------------|-0--------0--|
|-3-----3--|-1--0-----|-0---------|-3--------------|-1-----1-----|
|-2--------|-------2--|-0---------|-0--0-----------|-0--0--------|
|----0-----|----------|-----0-----|-0-----0--------|-2-----------|
|----------|----------|-----------|-2--------0--2--|-3-----------|
|----------|----------|-----------|-3--------------|-------------|
  all   is   calm       all    is   bright           'round    yon

                G                              C
|-3-----2--0--|-------0-----|----------------|-0--------0-|-3-----2---0-|
|-1-----------|-3--------3--|-0--------------|-1-----1----|-1-----------|
|-0--0--------|-0--0--------|-0--0-----------|-0--0-------|-0--0--------|
|-2-----------|-0-----------|-0-----0--------|-2----------|-2-----------|
|-------------|-2-----------|-2--------0--2--|-3----------|-------------|
|-------------|-3-----------|-3--------------|------------|-------------|
  vir   -  gin  moth -er and  child            Ho  -    ly  in  -fant so

  G                              D7                      G
|-------0-----|----------------|-5-----5--|-8-----5--2-|-3--------------|
|-3--------3--|-0--------1--0--|-3--------|-7----------|-0--------0-----|
|-0--0--------|-0--0-----------|-2--------|-5----------|-0--0-----------|
|-0-----------|-0-----0--------|----0-----|----0-------|-------0-----0--|
|-2-----------|-2--------------|----------|------------|----------------|
|-3-----------|-3--------------|----------|------------|----------------|
  ten -der and  mild             sleep in   heav- en-ly  peace,..........

                               D7          G
|-7--------------|-3--------|------------|-3---------3-|
|-0--------0-----|-0--3--0--|--3----1----|-3-----3-----|
|-0--0-----------|-0--------|--2-------2-|-0-0-----0---|
|-0-----0-----0--|-0--------|--0---------|-0---0-------|
|----------------|----------|------------|-2-----------|
|----------------|----------|------------|-3-----------|
...                sleep in    heav-en-ly

			
	Silent Night, Holy Night
	Sheperds quake,
	At the sight.
	Glories stream from
	Heaven above,
	Heavenly Hosts sing Alleluia,
	Christ the Savior is born!
	Christ the Savior is born!




                                Silent Night
                                          ,   , 
                          arranged by Pinter Denes

  *                            *           *           *
|-------0-----------------|--|-5-------5---2-----2-----3-------3--------------|
|-3-------3---0-----0-----|--|-3-----3---3-3---3---3---0-----0---0-3-----3----|
|-0---0-----0-0-------0---|0/|-----2---------2-------2-----0-------0-------0--|
|---0-------------0-----0-|/0|---0---------0-------0-----0-------------0-----0|
|-2-----3-2-----2---------|--|-3-------3---------------2-------2-----2--------|
|-------------3-----------|--|-------------------------------------3----------|
  *                       *  
|-0-------0---3-----2-0---------0-----------------|--|
|-1-----1---1-----1-----1-3-------3---0-----0-----|--|
|-----0---------0---------0---0-----0-0-------0---|0/|
|---2---------2-----0-------0-------------0-----0-|/0|
|-3-------3-----------3---2-----3-2-----2---------|--|
|-------------------------------------3-----------|--|
  *           *            *           *
|-5-------5---8------------3-----3------------------|
|-3-----3---3-10----10-7---3---3---3--<12>----------|
|-----2-----------7------7---0--------<12>----------|
|---0-----------7---------------------<12>----------|
|-3-------5---9------------2-----------10-----------|
|---------------------------------------------------|     2 December 1995
|-3----------------------------------------------|
|-3-----3-----3-----1----------------------------|
|---------4---2---2-----2-0-----0----------------|        * : change fingering
|-----5-----5---0-----4-------0---0--------------|
|---5---------3-------------2-------2------------|        0/
|-3-----------------------3-----------3----------|        /0 : replay


Christmas is coming, did you think to the little guitar demo, near the christmas tree,
all your family around would request (I'm thinking to beginners) ?

Playing the last death riff of a 'killer metallic group' with your grand-parents
is maybe not the best to do ...

As many of you requested, here is the classical christmas hit 'silent night'.

This version is simpler than the others you can find at nevada's ftp site.
(it is maybe not exact, but it sounds well).

    SILENT NIGHT

||-0---2p0---------|-0---2p0---------|-7---7---4-------|-5---5---0-------|
||----------2------|----------2------|-----------------|-----------------|
||-----------------|-----------------|-----------------|-----------------|
||-----------------|-----------------|-----------------|-----------------|
||-0--------0------|-0--------0------|-----------------|-0-------0-------|
||-----------------|-----------------|-0-------0-------|-----------------|


 |-2--2--5---4--2--|-0---2p0---------|-2--2--5---4--2--|-0---2p0---------|
 |-----------------|----------2------|-----------------|----------2------|
 |-----------------|-----------------|-----------------|-----------------|
 |-0--0------------|-----------------|-0--0------------|-----------------|
 |-------0---------|-0--------0------|-------0---------|-0--------0------|
 |-----------------|-----------------|-----------------|-----------------|


 |-7--7--10--7--4--|-5--5---9--------|-5--------0------|-------------0---|
 |-----------------|-----------------|----5------------|-3--0--------2---|
 |-----------------|-----------------|-------6---------|--------2----2---|
 |-----------------|-----------------|-----------------|----------or-2---|
 |-----------------|-0------0--------|-0---------------|--------0----0---|
 |-0-----0---------|-----------------|----------0------|-----------------|

Suggestions are Welcome !
Merry Christmas !


______________________________________________________________

  MFI -  23-25, rue Jean Rostand - 91893 Orsay Cedex - FRANCE 
   Tel: 33 (1) 69 41 83 47 - Fax: 33 (1) 69 41 83 51

         Real programmers use: COPY CON PROGRAM.EXE
______________________________________________________________
            
Tabs too difficult? Try these video lessons and learn fast.


comments powered by Disqus
↑ Back to top | Tablatures and chords are parodies/interpretations of the original songs. You may use it for private study, scholarship, research or language learning purposes only