» » »

Silent Night Tabs (ver.2)

Artists:  A B C D E F G H I J K L M N O P Q R S T U V W X Y Z # 

Silent Night Tabs (ver.2)

Misc Christmas
Rating:
0/5 (0 votes)

Hard to play? Try these video lessons and learn fast.
                Silent Night

1). by Joseph Mohr & Franz Gruber

Basic Accompaniment pattern: change along with chords.
   _________  ____________
   |   |   |  |     |    |
|-------------------3---------|
|----------0-------------0----|
|------0------0---------------|
|-----------------------------|
|-----------------------------|
|--3--------------------------|

The song is in 3/4 time in the key of G.
This arrangement contains the melody notes along with additional notes to make
it sound good on one guitar.  For a duet, add the above accompaniment.

  G
|-------0-----|----------------|-------0-----|----------------|
|-3--------3--|-0--------0-----|-3--------3--|-0--------1--0--|
|-0--0--------|-0--0--------0--|-0--0--------|-0--0-----------|
|-0-----------|-0-----0--------|-0-----------|-0-----0--------|
|-2-----------|-2--------------|-2-----------|-2--------------|
|-3-----------|-3--------------|-3-----------|-3--------------|
  Si -    lent  Night            Ho -     ly   Night

  D7                    G                            C
|-5-----5--|-2--------|-3------3--|----------------|-0--------0--|
|-3-----3--|-1--0-----|-0---------|-3--------------|-1-----1-----|
|-2--------|-------2--|-0---------|-0--0-----------|-0--0--------|
|----0-----|----------|-----0-----|-0-----0--------|-2-----------|
|----------|----------|-----------|-2--------0--2--|-3-----------|
|----------|----------|-----------|-3--------------|-------------|
  all   is   calm       all    is   bright           'round    yon

                G                              C
|-3-----2--0--|-------0-----|----------------|-0--------0-|-3-----2---0-|
|-1-----------|-3--------3--|-0--------------|-1-----1----|-1-----------|
|-0--0--------|-0--0--------|-0--0-----------|-0--0-------|-0--0--------|
|-2-----------|-0-----------|-0-----0--------|-2----------|-2-----------|
|-------------|-2-----------|-2--------0--2--|-3----------|-------------|
|-------------|-3-----------|-3--------------|------------|-------------|
  vir   -  gin  moth -er and  child            Ho  -    ly  in  -fant so

  G                              D7                      G
|-------0-----|----------------|-5-----5--|-8-----5--2-|-3--------------|
|-3--------3--|-0--------1--0--|-3--------|-7----------|-0--------0-----|
|-0--0--------|-0--0-----------|-2--------|-5----------|-0--0-----------|
|-0-----------|-0-----0--------|----0-----|----0-------|-------0-----0--|
|-2-----------|-2--------------|----------|------------|----------------|
|-3-----------|-3--------------|----------|------------|----------------|
  ten -der and  mild             sleep in   heav- en-ly  peace,..........

                               D7          G
|-7--------------|-3--------|------------|-3---------3-|
|-0--------0-----|-0--3--0--|--3----1----|-3-----3-----|
|-0--0-----------|-0--------|--2-------2-|-0-0-----0---|
|-0-----0-----0--|-0--------|--0---------|-0---0-------|
|----------------|----------|------------|-2-----------|
|----------------|----------|------------|-3-----------|
...                sleep in    heav-en-ly

			
	Silent Night, Holy Night
	Sheperds quake,
	At the sight.
	Glories stream from
	Heaven above,
	Heavenly Hosts sing Alleluia,
	Christ the Savior is born!
	Christ the Savior is born!

**********************************************************

2). by Pinter Denes

  *                            *           *           *
|-------0-----------------|--|-5-------5---2-----2-----3-------3--------------|
|-3-------3---0-----0-----|--|-3-----3---3-3---3---3---0-----0---0-3-----3----|
|-0---0-----0-0-------0---|0/|-----2---------2-------2-----0-------0-------0--|
|---0-------------0-----0-|/0|---0---------0-------0-----0-------------0-----0|
|-2-----3-2-----2---------|--|-3-------3---------------2-------2-----2--------|
|-------------3-----------|--|-------------------------------------3----------|
  *                       *  
|-0-------0---3-----2-0---------0-----------------|--|
|-1-----1---1-----1-----1-3-------3---0-----0-----|--|
|-----0---------0---------0---0-----0-0-------0---|0/|
|---2---------2-----0-------0-------------0-----0-|/0|
|-3-------3-----------3---2-----3-2-----2---------|--|
|-------------------------------------3-----------|--|
  *           *            *           *
|-5-------5---8------------3-----3------------------|
|-3-----3---3-10----10-7---3---3---3--<12>----------|
|-----2-----------7------7---0--------<12>----------|
|---0-----------7---------------------<12>----------|
|-3-------5---9------------2-----------10-----------|
|---------------------------------------------------|
  *           *           *                          
|-3----------------------------------------------|
|-3-----3-----3-----1----------------------------|
|---------4---2---2-----2-0-----0----------------|   
|-----5-----5---0-----4-------0---0--------------|
|---5---------3-------------2-------2------------|   
|-3-----------------------3-----------3----------|   

***********************************************************************

3).

||-0---2p0---------|-0---2p0---------|-7---7---4-------|-5---5---0-------|
||----------2------|----------2------|-----------------|-----------------|
||-----------------|-----------------|-----------------|-----------------|
||-----------------|-----------------|-----------------|-----------------|
||-0--------0------|-0--------0------|-----------------|-0-------0-------|
||-----------------|-----------------|-0-------0-------|-----------------|


 |-2--2--5---4--2--|-0---2p0---------|-2--2--5---4--2--|-0---2p0---------|
 |-----------------|----------2------|-----------------|----------2------|
 |-----------------|-----------------|-----------------|-----------------|
 |-0--0------------|-----------------|-0--0------------|-----------------|
 |-------0---------|-0--------0------|-------0---------|-0--------0------|
 |-----------------|-----------------|-----------------|-----------------|


 |-7--7--10--7--4--|-5--5---9--------|-5--------0------|-------------0---|
 |-----------------|-----------------|----5------------|-3--0--------2---|
 |-----------------|-----------------|-------6---------|--------2----2---|
 |-----------------|-----------------|-----------------|----------or-2---|
 |-----------------|-0------0--------|-0---------------|--------0----0---|
 |-0-----0---------|-----------------|----------0------|-----------------|

***************************************************************************

4).

e|-3-5-3-0--3-5-3-0--10-10-7--8-8-3--5-5-8-7-5-3-5-3-0--5-5-8-7-5-3-5-3-0--|
B|-------------------------------------------------------------------------|
G|-------------------------------------------------------------------------|
D|-------------------------------------------------------------------------|
A|-------------------------------------------------------------------------|
E|-------------------------------------------------------------------------|

e|-10-10-13-10-7-8-12--8-3-0-3-1-------------------------------------------|
B|-------------------------------3-1---------------------------------------|
G|-------------------------------------------------------------------------|
D|-------------------------------------------------------------------------|
A|-------------------------------------------------------------------------|
E|-------------------------------------------------------------------------|

A                  A7            
Silent night, holy night
E7/Bm     E  f#m/A   A7
All is calm, All is bright
D                    A
Round yon Vir - gin, Mother and Child
D              A          A7
Holy Infant so Tender and mild,
Bm        E7      F#m
Sleep in heavenly peace,
A        D        A
Sleep in heavenly peace.


Silent night, holy night

Shepherds quake at the sight,

Glories stream from heaven afar,

Heavenly hosts sing Alleleu- lia

Christ the Saviour is born!

Christ the saviour is born.


Silent night, holy night

Son of God, love's pure light

Radiant beams from Thy holy face

with the dawn of redeeming grace,

Jesus Lord at thy birth,

Jesus Lord at thy birth.
            
Hard to play? Try these video lessons and learn fast. | Correct




comments powered by Disqus
↑ Back to top | Tablatures and chords are parodies/interpretations of the original songs. You may use it for private study, scholarship, research or language learning purposes only