» » »

Misc Christmas, Rudolph The Red-nosed Reindeer Bass tabs (ver.3)

Artists:  A B C D E F G H I J K L M N O P Q R S T U V W X Y Z # 

Rudolph The Red-nosed Reindeer Bass tabs (ver.3)

Misc Christmas Tabs
Rating:
0/5 (0 votes)
Rudolph The Red-nosed Reindeer lessons Tabs too difficult? Try these video lessons and learn fast
                Rudolph the red nosed reindeer
Standard Bass Tuning (E|A|D|G)

G--------------2----------------------------2-1------------------|
D-----2-4-2------4-2--------------2-4-2-4-2----------------------|
A-------------4--------------------------------------------------|
E----------------------------------------------------------------|

G-----------------2----------------------------------------------|
D-----0-2-0---------4-2--------------2-4-2-4-2--4----------------|
A-----------2-----------------------------------------4----------|
E----------------------------------------------------------------|

G--------------2----------------------------2-1------------------|
D-----2-4-2------4-2--------------2-4-2-4-2----------------------|
A-------------4--------------------------------------------------|
E----------------------------------------------------------------|

G-----------------2----------------------------4-2---------------|
D-----0-2-0---------4-2--------------2-4-2-4-2-------------------|
A-----------2----------------------------------------------------|
E----------------------------------------------------------------|

G----------2-----------------------------------------------------|
D------4-4---4-2---2-----------0-4-2-----------------------------|
A-------------------4----------------5-4-------------------------|
E----------------------------------------------------------------|

G---------------1-1-1-----2-2-1----------------------------------|
D-----------2-4-----------------4-2------------------------------|
A-------2-4-------------------------5-4--------------------------|
E----------------------------------------------------------------|

G--------------2----------------------------2-1------------------|
D-----2-4-2------4-2--------------2-4-2-4-2----------------------|
A-------------4--------------------------------------------------|
E----------------------------------------------------------------|

G-----------------2----------------------------4-2---------------|
D-----0-2-0---------4-2--------------2-4-2-4-2-------------------|
A-----------2----------------------------------------------------|
E----------------------------------------------------------------|
            

comments powered by Disqus
↑ Back to top | Misc Christmas Bass for Rudolph The Red-nosed Reindeer. Lyrics for acoustic guitar and electric guitar. Tablatures and chords are parodies/interpretations of the original songs. You may use it for private study, scholarship, research or language learning purposes only