» » »

Ring Christmas Bells Tabs (ver.1)

Artists:  A B C D E F G H I J K L M N O P Q R S T U V W X Y Z # 

Ring Christmas Bells Tabs (ver.1)

Misc Christmas
Rating:
0/5 (0 votes)

Hard to play? Try these video lessons and learn fast.
                

This is the basic stuff for, “Ring Christmas Bells.” After getting it down
 it’s always fun to mess around and add your own twists. Tons of fun 
to play and old people love it, so have fun.

P.S. I made this tab in total D tuning, so use a capo on the second 
fret if you care that freggin much.

        -Zachy Boy.


Riff 1:
e|-----------|
B|-----------|
G|--5—4h5--2-|  Playing four bars of this sounds good. So does eight…
D|-----------|
A|-(0)~~~~~~-|
E|-----------|

Riff 2
e|------------|
B|------------|
G|--/9 7h9--5-|
D|------------| This is played as many as the first Riff.
A|------------|
E|--(0)-------|

Riff 3
e|-/5-5-3/1-0-0----------------------|-----------------------| This part’s a little
B|------(p)-----3p1-3-3—5p3--1—0h1---|-----------1h3h5-3-1-0-|complicated, but easy after
G|-(2)-----------------------------2-|-----1h2h4-------------|a little practice…
D|-----------------------------------|-2-2-------------------|
A|-----------------------------------|-----------------------|
E|-----------------------------------|-----------------------|


_________________________________________________________________________________________

e|-----------------------------------------|------------------------------------|
B|-----------------------------------------|------------------------------------|
G|--5—4h5--2--5—4h5--2--5—4h5--2--5—4h5--2-|--/9-7h9--5---/9-7h9--5---/9-7h9--5-|
D|-----------------------------------------|------------------------------------|
A|-(0)-------------------------------------|------------------------------------|
E|-----------------------------------------|------------------------------------

e|------------|-/5-5-3/1-0-0----------------------|-----------------------|
B|------------|------(p)-----3p1-3-3—5p3--1—0h1---|-----------1h3h5-3-1-0-|    
G|--/9-7h9--5-|-(2)-----------------------------2-|-----1h2h4-------------| And Repeat…
D|------------|-----------------------------------|-2-2-------------------|
A|------------|-----------------------------------|-----------------------|
E|------------|-----------------------------------|-----------------------|
            
Hard to play? Try these video lessons and learn fast. | Correct




comments powered by Disqus
↑ Back to top | Tablatures and chords are parodies/interpretations of the original songs. You may use it for private study, scholarship, research or language learning purposes only