» » »

Misc Christmas, O Little Town Of Bethlehem Tabs (ver.3)

Artists:  A B C D E F G H I J K L M N O P Q R S T U V W X Y Z # 

O Little Town Of Bethlehem Tabs (ver.3)

Misc Christmas Tabs
 Rating:
4/5 (4 votes)
O Little Town Of Bethlehem lessons Tabs too difficult? Try these video lessons and learn fast
1
                
UPDATED August 2010
wow that tab was shocking before. Just thought i would update it after 7 years!


e|---------------------5---------------------|
B|-2-7-7-7-5-7-5-7-8-----7-8-7---5-7---------|
G|-2-7-7-7-7-7-7-7-----0-------7-----7-------|
D|-2-----------------------0---------0-------|
A|-0-----------------------------0-----------|
E|-------------------------------------------|

e|-------------------------------------------------|
B|----------------10-12-10-------------------------|
G|7-9-11-12-14----9--------12-11-9----7-9-11-12-14-|
D|0-0-0--0--0-------------------------0-0-0--0--0--|
A|-------------------------------------------------|
E|-------------------------------------------------|

e|-----------------------------|
B|-2-------------------------2-|
G|-2-----7----11----9----7---2-|
D|-2-------------------------2-|
A|-0--5----9-----7----5------0-|
E|-----------------------------|
            
Submit corrections

comments powered by Disqus
↑ Back to top | Misc Christmas Tabs for O Little Town Of Bethlehem. Lyrics for acoustic guitar and electric guitar. 1 Tablatures and chords are parodies/interpretations of the original songs. You may use it for private study, scholarship, research or language learning purposes only