» » »

Misc Christmas, O Little Town Of Bethlehem Tabs (ver.1)

Artists:  A B C D E F G H I J K L M N O P Q R S T U V W X Y Z # 

O Little Town Of Bethlehem Tabs (ver.1)

Misc Christmas Tabs
 Rating:
4/5 (4 votes)
O Little Town Of Bethlehem lessons Tabs too difficult? Try these video lessons and learn fast
                Music By:Lewis H. Redner(1831-1908) and Phillip Brooks (1835-1893)

Key:
~-let ring
x-don't play
(b)-barre

Chords:
    G  Am  D7  E7  Ao  B(b)Em   C
e---3---0---2---0---2---1---0---0---|
b---0---1---1---0---1---3---0---1---|
D---0---2---2---1---2---3---0---0---|
D---0---2---0---0---1---3---2---2---|
A---2---0---x---2---x---1---2---3---|
E---3---x---x---0---x---x---0---4---|

        G        Am     G  D7  G      G   E7  Am        G   D7 G
e-----------------------------------------0---------------------------|
b---0-0-0---0-3-1--------------0~~~-0-0-0---3-3-0----------0----------|
g---------3---------2-0--0-2------------------------2-0--0---2-0~~~---|
D-----------------2-----4----0--------------------2-----4-------------|
A---------------------------------------------------------------------|
E---------------------------------------------------------------------|

           A       B   Em    C  B        G        Am    G    D7 G
e----------------------------------------------------0-----------------|
b---0-0-0-----------------------0~~~-0-0-0---0-3-1-----3---0~----------|
g---------2-0---------------0-2------------3-------------0----2-0~~~---|
D-------------4~~-4-4-4-2-4------------------------2-------------------|
A----------------------------------------------------------------------|
E----------------------------------------------------------------------|

Repeat everything x4
Phillip Brooks, Lewis H. Redner. publ.1868
(Starting note:a) 

O little town of Bethlehem, [F Fdim F Gm]
How still we see thee lie; [F C7 F]
Above thy deep and dreamless sleep, [F D7 Gm]
The silent stars go by. [F C7 F]
Yet in thy dark streets shineth [F F F#dim Gm G#dim A4 A7]
The everlasting light; [Dm A F Gm A4 A] 
The hopes and fears of all the years [F Fdim F Gm]
Are met in thee tonight. [F Bb F C7 F]


For Christ is born of Mary, [F Fdim F Gm]
And gather'd all above [F C7 F]
While mortals sleep, the angels keep [F D7 Gm]
Their watch of wond'ring love. [F C7 F]
O morning stars together [F F F#dim Gm G#dim A4 A7]
Proclaim the holy birth [Dm A F Gm A4 A] 
And praises sing to God the King [F Fdim F Gm]
And peace to men on earth. [F C7 F]
            
Submit corrections

comments powered by Disqus
↑ Back to top | Misc Christmas Tabs for O Little Town Of Bethlehem. Lyrics for acoustic guitar and electric guitar. Tablatures and chords are parodies/interpretations of the original songs. You may use it for private study, scholarship, research or language learning purposes only