» » »

Misc Christmas, Oh Come All Ye Faithful Tabs (ver.4)

Artists:  A B C D E F G H I J K L M N O P Q R S T U V W X Y Z # 

Oh Come All Ye Faithful Tabs (ver.4)

Misc Christmas Tabs
 Rating:
4/5 (4 votes)
Oh Come All Ye Faithful lessons Tabs too difficult? Try these video lessons and learn fast
                I was getting bored with all the single note versions of this song so I gave it a little 
using the D string...Enjoy!
(Feel free to add or take away notes as you see fit)
This is also my first tab ever, so I appologize if the timing is a little unclear.
I tried to designate longer ringing notes with ~

e-----------------------------------------------------------|
B-----------------------------------------------------------|
G-5~-0-5-7-0~---9-7-9-10-9-7~---5~-4-2-4-5-7-9-4~-2~-0-0~~--|
D-5~-0-5-5-5~---5-5-5-10-7-5~---5~-5-4-5-5-5-5-5~-0~-0-0~~--|
A-----------------------------------------------------------|
E-----------------------------------------------------------|

e--------------------------------------------------------------------|
B--------------------------------------------------------------------|
G-12~-10-9--10-9---7-9-5-7-4-2-0-(0)---5-4-5-7-5-0--9-7-9-10-9--7----|
D-10~-10-10-10-10--5-5-5-5-5-0-0-(0)---5-5-5-5-5-0--5-5-5-10-10-5----|
A--------------------------------------------------------------------|
E--------------------------------------------------------------------|

e--------------------------------------------|
B--------------------------------------------|
G-9--10-9--7-5-4-5--10-9---7---5-5~~---------|
D-10-10-10-9-7-5-5--10-10--5---5-5~~---------|
A--------------------------------------------|
E--------------------------------------------|
            
Submit corrections

comments powered by Disqus
↑ Back to top | Misc Christmas Tabs for Oh Come All Ye Faithful. Lyrics for acoustic guitar and electric guitar. Tablatures and chords are parodies/interpretations of the original songs. You may use it for private study, scholarship, research or language learning purposes only