» » »

Oh Come All Ye Faithful Tabs (ver.3)

Artists:  A B C D E F G H I J K L M N O P Q R S T U V W X Y Z # 

Oh Come All Ye Faithful Tabs (ver.3)

Misc Christmas
Rating:
0/5 (0 votes)

Hard to play? Try these video lessons and learn fast.
                ----------------------------------------------------------------------------|
----------------------------------------------------------------------------|

Tuning:
      C               G           C     G/B C  F  C/G G     Am D7/F# G  D7
e|--------------------------------0---------0--1--3--------------------------|
B|-1--1----------1----3-----------------3-------------3-----1--1----0--------|
G|-----------0--------------0-------------------------------------------2----|
D|---------------------------------------------------------------------------|
A|---------------------------------------------------------------------------|
E|---------------------------------------------------------------------------|
   o  come,  all ye faith - ful   joy-ful and tri-um-phant; o come ye, o
   G   C/E  G/B C   G/D   D7  G           C/E   Dm C     G7   C    G/B C
e|--------------0-------------------------3-----1--0-----1----0--------0-----|
B|-0---1----3-------0-----------------------------------------------3--------|
G|---------------------2--0---0----------------------------------------------|
D|---------------------------------------------------------------------------|
A|---------------------------------------------------------------------------|
E|---------------------------------------------------------------------------|
  come_____ ye to Beth - le - hem!        Come and be - hold Him,  born the
   Am D7/F# G        NC C/E G/D C/E G7/F C/E   C          G/B C  G7/D
e|-------------------------------------------------0--0-------0---1----------|
B|-1----3---0----------1--1--0--1----3---1-----------------3-----------------|
G|-------------2--0----------------------------0-----------------------------|
D|---------------------------------------------------------------------------|
A|---------------------------------------------------------------------------|
E|---------------------------------------------------------------------------|
   King of an - gels,  O come let us a - dore Him, O come let us a - dore
  G/B    C G7/D  C G7/B Am G G7/F C/E F     C/G      G       C
e|-------0---1---0--------------------1-----0--------------------------------|
B|-3----------------3---1---0-----1------------------3---1---1---------------|
G|---------------------------------------------------------------------------|
D|---------------------------------------------------------------------------|
A|---------------------------------------------------------------------------|
E|---------------------------------------------------------------------------|
   Him,  O come let us a - dore Him,_____  Christ______ the Lord.

Enjoy!!!


| /  slide up
| \  slide down
| h  hammer-on
| p  pull-off
| ~  vibrato
| +  harmonic
| x  Mute note
============================================================================
            
Hard to play? Try these video lessons and learn fast. | Correct




comments powered by Disqus
↑ Back to top | Tablatures and chords are parodies/interpretations of the original songs. You may use it for private study, scholarship, research or language learning purposes only