» » »

Misc Christmas, O Come O Come Emmanuel Tabs (ver.1)

Artists:  A B C D E F G H I J K L M N O P Q R S T U V W X Y Z # 

O Come O Come Emmanuel Tabs (ver.1)

Misc Christmas Tabs
 Rating:
4/5 (4 votes)
O Come O Come Emmanuel lessons Tabs too difficult? Try these video lessons and learn fast
1
                e| ----------------------------------------------------|
b| ---------0--0--0------1-----------------0-----------|
g| ------0--------0---2-----0------0---2------0-----0--|
d| --2---2-----0------2-----0--2---0---0---0--0--2--0--|
a| --2------2------------------4-----------------3-----|
e| ----------------------------------------------------|

e| ----------------------------------------------------|
b| ------------------------------------------------0---|
g| --2---------------2-----2-----------0-----2--0------|
d| -----4--2--0---2--2--0-----2--2--4--2--4--3---------|
a| --3-----2--2---2--------3--3-----5-----5--------2---|
e| ----------------------------------------------------|

e| ----------------------------------------------------|
b| -----0--0--0------1---0---------3--3--0---0---0-----|
g| --2--------0---2------0--2---0--0-----0-------0-----|
d| --0--0--0------2---------4---0-----4------4---------|
a| ----------------------------------------------------|
e| ----------------------------------------------------|

e| ----------------------------------------------------|
b| -----1--0--2----------0-----------------------------|
g| --2-----0------0--2------0-----0--2-----------------|
d| --2--------4---2--0---0--0--2--0-----4--2--0--2-----|
a| ----------------------------3-----3-----2--2--2-----|
e| ----------------------------------------------------|
            
Submit corrections

comments powered by Disqus
↑ Back to top | Misc Christmas Tabs for O Come O Come Emmanuel. Lyrics for acoustic guitar and electric guitar. 1 Tablatures and chords are parodies/interpretations of the original songs. You may use it for private study, scholarship, research or language learning purposes only