» » »

O Come O Come Emanuel Tabs (ver.1)

Artists:  A B C D E F G H I J K L M N O P Q R S T U V W X Y Z # 

O Come O Come Emanuel Tabs (ver.1)

Misc Christmas
Rating:
0/5 (0 votes)

Hard to play? Try these video lessons and learn fast.
                ------------------------------------
O Come, O Come, Emanuel
------------------------------------
Submitted by pm59



e|---------0--0--0-----1--0-------------0-----------------------------------|
B|------1-----------3--------3--1----3-----1-----1--3--0--------------------|
G|---2----------------------------------------2-----------2--0--2-----------|
D|--------------------------------------------------------------------------|
A|--------------------------------------------------------------------------|
E|--------------------------------------------------------------------------|

e|------------------------------------0--0--0-----1--0----------------------|
B|--3--3-------0--1---0---------1--3-----------3--------3--1----------------|
G|--------2--2-----------2--0-----------------------------------------------|
D|--------------------------------------------------------------------------|
A|--------------------------------------------------------------------------|
E|--------------------------------------------------------------------------|

e|--3--3--0--0---0-----1--0------------0------------------------------------|
B|------------------3--------3--1---3-----1-----1--3--0---------------------|
G|-------------------------------------------2-----------2--0--2------------|
D|--------------------------------------------------------------------------|
A|--------------------------------------------------------------------------|
E|--------------------------------------------------------------------------|



Lyrics
-----------------------------------
O come, O come, Emmanuel,
And ransom captive Israel,
That mourns in lonely exile here
Until the Son of God appear.

Rejoice! Rejoice!
Emmanuel shall come to thee, O Israel.

O come, Thou Wisdom from on high,
Who orderest all things mightily;
To us the path of knowledge show,
And teach us in her ways to go.

Rejoice! Rejoice!
Emmanuel shall come to thee, O Israel.

O come, Thou Rod of Jesse, free
Thine own from Satan’s tyranny;
And give them victory over the grave.

Rejoice! Rejoice!
Emmanuel shall come to thee, O Israel.

O come, Thou Day-spring, come and cheer
Our spirits by Thine advent here;
Disperse the gloomy clouds of night,
And death’s dark shadows put to flight.

Rejoice! Rejoice!
Emmanuel shall come to thee, O Israel.

O come, Thou Key of David, come,
And open wide our heavenly home;
Make safe the way that leads on high,
And close the path to misery.

Rejoice! Rejoice!
Emmanuel shall come to thee, O Israel.

O come, O come, great Lord of might,
Who to Thy tribes on Sinai’s height
In ancient times once gave the law
In cloud and majesty and awe.

Rejoice! Rejoice!
Emmanuel shall come to thee, O Israel.

O come, Thou Root of Jesse’s tree,
An ensign of Thy people be;
Before Thee rulers silent fall;
All peoples on Thy mercy call.

Rejoice! Rejoice!
Emmanuel shall come to thee, O Israel.

O come, Desire of nations, bind
In one the hearts of all mankind;
Bid Thou our sad divisions cease,
And be Thyself our King of Peace.

Rejoice! Rejoice!
Emmanuel shall come to thee, O Israel.
            
Hard to play? Try these video lessons and learn fast. | Correct




comments powered by Disqus
↑ Back to top | Tablatures and chords are parodies/interpretations of the original songs. You may use it for private study, scholarship, research or language learning purposes only