» » »

O Christmas Tree Tabs (ver.7)

Artists:  A B C D E F G H I J K L M N O P Q R S T U V W X Y Z # 

O Christmas Tree Tabs (ver.7)

Misc Christmas
Rating:
0/5 (0 votes)

Hard to play? Try these video lessons and learn fast.
                ----------------------------------------------------------------------------
                             O Christmas Tree
----------------------------------------------------------------------------



Tuning: Standard


 
                     C
e|----------------|------------------|--0---0-0------0--|
B|----------------|--1---1-1------3--|------------------|
G|-------------0--|------------------|------------------|
D|----------------|------------------|------------------|
A|----------------|------------------|------------------|
E|----------------|------------------|------------------|

  Dm         G7           C
-----0--1---------|-----------------|------------------|--0---0-0------0--|
--3----------0----|--3----1---------|--1---1-1------3--|------------------|
------------------|--------------0--|------------------|------------------|
------------------|-----------------|------------------|------------------|
------------------|-----------------|------------------|------------------|
------------------|-----------------|------------------|------------------|

  Dm         G7           C             C     A7           Dm  
-----0--1---------|---------------3--|--3---0-5------3--|--3---1-1------1--|
--3----------0----|--3----1----------|------------------|------------------|
------------------|------------------|------------------|------------------|
------------------|------------------|------------------|------------------|
------------------|------------------|------------------|------------------|
------------------|------------------|------------------|------------------|
  
  G7                 C                 C                  A7      
--1-----3------1--|--1----0---------|------------------|--0---0-0------0--|
------3-----------|-----------------|--1---1-1------3--|------------------|
------------------|--------------0--|------------------|------------------|
------------------|-----------------|------------------|------------------|
------------------|-----------------|------------------|------------------|
------------------|-----------------|------------------|------------------|

  Dm         G7           C 
------0-1---------|-----------------|
--3----------0----|--3----1---------|
------------------|--------------0--|
------------------|-----------------|
------------------|-----------------|
------------------|-----------------|

| /  slide up
| \  slide down
| h  hammer-on
| p  pull-off
| ~  vibrato
| +  harmonic
| x  Mute note
===========================================================================
            
Hard to play? Try these video lessons and learn fast. | Correct




comments powered by Disqus
↑ Back to top | Tablatures and chords are parodies/interpretations of the original songs. You may use it for private study, scholarship, research or language learning purposes only