» » »

Misc Christmas, O Christmas Tree Tabs (ver.6)

Artists:  A B C D E F G H I J K L M N O P Q R S T U V W X Y Z # 

O Christmas Tree Tabs (ver.6)

Misc Christmas Tabs
 Rating:
4/5 (4 votes)
O Christmas Tree lessons Tabs too difficult? Try these video lessons and learn fast
                pretty easy version that sounds good 
have fun impressing family and friends 

E|-------0-0-0------2-4-4-4-----4-2-4-5---------2-0---------------|
B|-----0--------------------------------------4-------------------|
G|----------------------------------------------------------------|
D|----------------------------------------------------------------|
A|------------------2-3-3-3-----3-2-3-3-------3-2-----------------|
E|-----0-0-0-0------------------------------------0---------------|

E|-------0-0-0------2-4-4-4-----4-2-4-5---------2-0---------------|
B|-----0--------------------------------------4-------------------|
G|----------------------------------------------------------------|
D|----------------------------------------------------------------|
A|------------------2-3-3-3-----3-2-3-3-------3-2-----------------|
E|-----0-0-0-0------------------------------------0---------------|

E|-----7-7-4-9-----7-7-5-5-----5-5-2-7-----5-5-4-4----------------|
B|----------------------------------------------------------------|
G|----------------------------------------------------------------|
D|----------------------------------------------------------------|
A|---------3-------7-7--------------2-7--------3-3----------------|
E|-----7-7---9---------5-5-----5-5-------5-5----------------------|

E|-------0-0-0------2-4-4-4-----4-2-4-5---------2-0---------------|
B|-----0--------------------------------------4-------------------|
G|----------------------------------------------------------------|
D|----------------------------------------------------------------|
A|------------------2-3-3-3-----3-2-3-3-------3-2-----------------|
E|-----0------------------------------------------0---------------|
            
Submit corrections

comments powered by Disqus
↑ Back to top | Misc Christmas Tabs for O Christmas Tree. Lyrics for acoustic guitar and electric guitar. Tablatures and chords are parodies/interpretations of the original songs. You may use it for private study, scholarship, research or language learning purposes only