» » »

O Christmas Tree Bass tabs (ver.1)

Artists:  A B C D E F G H I J K L M N O P Q R S T U V W X Y Z # 

O Christmas Tree Bass tabs (ver.1)

Misc Christmas
Rating:
0/5 (0 votes)

Hard to play? Try these video lessons and learn fast.
                So this was like the easiest thing ever. This should be right because I took it straight 
of sheet music. Send corrections and blah blah blah

G------------------------------------------|
D------------------------------------------|
A---8-8-8--10-12-12-12--12-10-12-14-7-10-8-|
E-8----------------------------------------|

G------------------------------------------|
D------------------------------------------|
A---8-8-8--10-12-12-12--12-10-12-14-7-10-8-|
E-8----------------------------------------|

G-----------------------------------------------|
D-----------------------------------------------|
A-15-15-12-17-15-15-14--14-14-10-15-14-14-12-12-|
E-----------------------------------------------|

G------------------------------------------|
D------------------------------------------|
A---8-8-8--10-12-12-12--12-10-12-14-7-10-8-|
E-8----------------------------------------|
            
Hard to play? Try these video lessons and learn fast. | Correct




comments powered by Disqus
↑ Back to top | Tablatures and chords are parodies/interpretations of the original songs. You may use it for private study, scholarship, research or language learning purposes only