>
 >
Let It Snow 1

Let It Snow 1 Guitar Tabs

Misc Christmas - Let It Snow 1 chords, tabs, tablatures, lyrics

Guitar lessons | Add/correct | Request | Top 50 tabs Artists:  A B C D E F G H I J K L M N O P Q R S T U V W X Y Z 0-9

Let It Snow 1 Guitar Tabs – Misc Christmas

CD, Sheet music, Poster

Do you like Let It Snow 1? Share with your friends now
ChordsChords v2Chords v3Chords v4Chords v5TabsTabs v2Tabs v3Ukulele
----------------------------------------------------------------------------
                                 Let it Snow
----------------------------------------------------------------------------


Tuning: Standard

Album:


Gtr I (E A D G B E) 
Gtr II (E A D G B E) 

 4/4
  Gtr I

|-----1---------0-----1------1------1------1-----0-----0----|
|-----1---------1-----1------1------1------0-----1-----1----|
|-----2---------3-----2------2------2------1-----3-----3----|
|-----3---------2-----3------3------3---0--------2-----2----|
|----------3-------------3--------------------3-------------|
|-1----------------1-------------1------------------3-------|
| Gtr II
|-8-8-6--5--------------------------------------------------|
|----------8-6-------------8---6-8--6-5---------------------|
|---------------5-----5--5--------------5-------------------|
|-----------------------------------------------------------|
|-----------------------------------------------------------|
|-----------------------------------------------------------|



|-------3------2------3-------3-----0-------0-----1-----1----|
|-------3------1------3-------3-----1-------1-----1-----1----|
|-------3------2------3-------3-----3-------3-----2-----2----|
|-------5--0----------5-------5-----2-------2-----3-----3----|
|-------------------------5------3-------------------3-------|
|--3--------------3---------------------3------1-------------|
|
|-10-10-8--6-------------12--10--8--8-6-5-5------------------|
|-------------10--8-------------------------8--6-------------|
|------------------------------------------------------------|
|------------------------------------------------------------|
|------------------------------------------------------------|
|------------------------------------------------------------|



|-----0--------0------0-------0------1-----1-----0-----0----|
|-----1--------1------1-------1------3-----0-----1-----1----|
|-----0--------0------0-------0------2-----0-----0-----0----|
|-----2--------2------2-------2---0--------0-----2-----2----|
|-3---------------3---------------------------3-------------|
|---------3---------------3-------------3-----------3-------|
|
|---5-----8-------------------------------------------------|
|-8---8-5---8-------6-5---5-----5---------------------------|
|-----------------------7---7-5-----------------------------|
|-----------------------------------------------------------|
|-----------------------------------------------------------|
|-----------------------------------------------------------|



|-----0-------0-----0------0------2------1-----0-----0----|
|-----1-------1-----1------1------1------0-----1-----1----|
|-----0-------0-----0------0------2------0-----3-----3----|
|-----2-------2-----2------2---0---------0-----2-----2----|
|-3--------------3--------------------------3-------------|
|---------3------------3--------------3-----------3-------|
|
|---5-----8--------------7-5-7----5-7-8-------------------|
|-8---8-5---8------------------8--------------------------|
|---------------------------------------------------------|
|---------------------------------------------------------|
|---------------------------------------------------------|
|---------------------------------------------------------|



|----1-----0--|----1-----1--|----1-----1--|----0-----0--|
|----1-----1--|----1-----1--|----1-----0--|----1-----1--|
|----2-----3--|----2-----2--|----2-----1--|----3-----3--|
|----3-----2--|----3-----3--|----3--0-----|----2-----2--|
|-------3-----|-------3-----|-------------|-3-----------|
|-1-----------|-1-----------|-1-----------|-------3-----|



|----3-----2--|----3-----3--|----0-----0--|-1----|
|----3-----1--|----3-----3--|----1-----1--|-1----|
|----3-----2--|----3-----3--|----3-----3--|-2----|
|----5--0-----|----5-----5--|----2-----2--|-3----|
|-------------|-------5-----|-3-----------|-3----|
|-3-----------|-3-----------|-------3-----|-1----|



| /  slide up
| \  slide down
| h  hammer-on
| p  pull-off
| ~  vibrato
| +  harmonic
| x  Mute note
===========================================================================





Comments


Popular Misc Christmas tabs & chords
Away In A Manger 3 Chords
Feliz Navidad Chords
Hark The Herald Angels Sing 5 Chords
Oh Du Frhliche Chords
Rudolph The Red-nosed Reindeer 4 Chords
As With Gladness Men Of Old Tabs
God Rest You Merry Gentlemen 1 Tabs
Here We Come A Wassailing Tabs
What Child Is This 4 Tabs
It Came Upon A Midnight Clear Ukulele


Song lyrics



↑ Back to top | Tablatures and chords are parodies/interpretations of the original songs. You may use it for private study, scholarship, research or language learning purposes only
© 2014 AZChords.com Contact us | Privacy policy | DMCA | Add/correct tabs | Request tabs | Top 50 tabs