» » »

Joy To The World Tabs (ver.4)

Artists:  A B C D E F G H I J K L M N O P Q R S T U V W X Y Z # 

Joy To The World Tabs (ver.4)

Misc Christmas
Rating:
0/5 (0 votes)

Hard to play? Try these video lessons and learn fast.
                e|-7-6-5-4--4-3----------------------7-7--6-6--5-5--4-4--7-7--6-6--5-5--4-4-|
b|--------------7-6~--6-7--7-8--8-9~----------------------------------------|
g|--------------------------------------------------------------------------|
d|--------------------------------------------------------------------------|
a|--------------------------------------------------------------------------|
E|--------------------------------------------------------------------------|


|---------------------------------------------------------------------------|
|---------------------------------------------------------------------------|
|-4-5-4-4-4-5-4-5-6~--------------------------7-6-5-4-3-4-3-2-0~~~----------|
|--------------------6-7-6-6-6-7-6-7-8--5-6-5-------------------------------|
|---------------------------------------------------------------------------|
|---------------------------------------------------------------------------|

that pretty much it
            
Hard to play? Try these video lessons and learn fast. | Correct




comments powered by Disqus
↑ Back to top | Tablatures and chords are parodies/interpretations of the original songs. You may use it for private study, scholarship, research or language learning purposes only