» » »

Jingle Bells Tabs (ver.7)

Artists:  A B C D E F G H I J K L M N O P Q R S T U V W X Y Z # 

Jingle Bells Tabs (ver.7)

Misc Christmas
Rating:
0/5 (0 votes)

Hard to play? Try these video lessons and learn fast.
                The entire tab with lyrics. 100% correct. Please RATE!

Tuning: Standard (E-a-d-g-b-e)


e|---0-------|-------0-------|---2-------|-3-3-1---0-|
b|-----3-1---|---------3-1---|-----5-3---|-------3---|
g|-0-------0-|-0-0-0-------2-|-2-------2-|-----------|
d|-----------|---------------|-----------|-----------|
a|-----------|---------------|-----------|-----------|
E|-----------|---------------|-----------|-----------|

e|---0-------|---0-------|---1-0---3-3-3-3-5-3-1-----3-|
b|-----3-1---|-----3-1---|-------3---------------3-1---|
g|-0-------0-|-0-------2-|-2---------------------------|
d|-----------|-----------|-----------------------------|
a|-----------|-----------|-----------------------------|
E|-----------|-----------|-----------------------------|

e|-0-0-0----0-0-0----0-3-----0-|--1-1-1-1-1-0-0-0-0-----0---3-|
b|-----------------------1-3---|--------------------3-3---3---|
g|-----------------------------|------------------------------|
d|-----------------------------|------------------------------|
a|-----------------------------|------------------------------|
E|-----------------------------|------------------------------|

e|-0-0-0----0-0-0----0-3-----0-|--1-1-1-1-1-0-0-0-3-3-1-----|
b|-----------------------1-3---|------------------------3-1-|
g|-----------------------------|----------------------------|
d|-----------------------------|----------------------------|
a|-----------------------------|----------------------------|
E|-----------------------------|----------------------------|
            
Hard to play? Try these video lessons and learn fast. | Correct




comments powered by Disqus
↑ Back to top | Tablatures and chords are parodies/interpretations of the original songs. You may use it for private study, scholarship, research or language learning purposes only