» » »

Jingle Bells Tabs (ver.6)

Artists:  A B C D E F G H I J K L M N O P Q R S T U V W X Y Z # 

Jingle Bells Tabs (ver.6)

Misc Christmas
Rating:
0/5 (0 votes)

Hard to play? Try these video lessons and learn fast.
                Whole Song:X= How many time you want!
----0-0-0--0-0-0--0-3-----0-|----1-1-1-1-1--0-0-0-0-0---0-3-|
---0------0------0---1-3-0--|---0----------0---------3-3-3--|
--0------0------0-------0---|--0----------0-----------------|
----------------------------|-------------------------------|
----------------------------|-------------------------------|
----------------------------|-------------------------------|

Ending:X=Once
----0-0-0--0-0-0--0-3-----0-|----1-1-1-1-1--0-0-0-3-3-1----|
---0------0------0---1-3-0--|---0----------0-----------3---|
--0------0------0-------0---|--0----------0----------------|
----------------------------|------------------------------|
----------------------------|------------------------------|
----------------------------|------------------------------|
            
Hard to play? Try these video lessons and learn fast. | Correct




comments powered by Disqus
↑ Back to top | Tablatures and chords are parodies/interpretations of the original songs. You may use it for private study, scholarship, research or language learning purposes only