» » »

Misc Christmas, Jingle Bells Tabs (ver.4)

Artists:  A B C D E F G H I J K L M N O P Q R S T U V W X Y Z # 

Jingle Bells Tabs (ver.4)

Misc Christmas Tabs
 Rating:
4/5 (4 votes)
Jingle Bells lessons Tabs too difficult? Try these video lessons and learn fast
                   ________________
  /               /  Now this song is the sweetest Christmas carol ever!
 / Jingle Bells  /  Happy Christmas!
/_______________/


  Part A
   D                                 D
e|-2---2---2-------2---2---2-------|-2---5---------0-2---------------|
B|---------------------------------|---------3-----------------------|
G|---------------------------------|---------------------------------|
D|---------------------------------|---------------------------------|
A|---------------------------------|---------------------------------|
E|---------------------------------|---------------------------------|

   G               D                 E               A
 |-3---3---3-----3-3---2---2-----2-|-2---0---0---2---0-------5-------|
 |---------------------------------|---------------------------------|
 |---------------------------------|---------------------------------|
 |---------------------------------|---------------------------------|
 |---------------------------------|---------------------------------|
 |---------------------------------|---------------------------------|

   D                                 D
 |-2---2---2-------2---2---2-------|-2---5---------0-2---------------|
 |---------------------------------|---------3-----------------------|
 |---------------------------------|---------------------------------|
 |---------------------------------|---------------------------------|
 |---------------------------------|---------------------------------|
 |---------------------------------|---------------------------------|

   G               D                 A               D
 |-3---3---3-----3-3---2---2-----2-|-5---5---3---0-------------------|
 |---------------------------------|-----------------3---------------|
 |---------------------------------|---------------------------------|
 |---------------------------------|---------------------------------|
 |---------------------------------|---------------------------------|
 |---------------------------------|---------------------------------|


  Part B
   D                                 D               G
 |-----2---0-----------------------|-----2---0-----------------------|
 |-------------3-------------------|-------------3---0-----------0-0-|
 |-2---------------2-----------2-2-|-2-------------------------------|
 |---------------------------------|---------------------------------|
 |---------------------------------|---------------------------------|
 |---------------------------------|---------------------------------|

   G               A                 A               D
 |-----3---2---0---5---5-------5---|-7---7---------------------------|
 |-0-------------------------------|---------7---5---7---------------|
 |---------------------------------|---------------------------------|
 |---------------------------------|---------------------------------|
 |---------------------------------|---------------------------------|
 |---------------------------------|---------------------------------|

   D                                 D               G
 |-----2---0-----------------------|-----2---0-----------------------|
 |-------------3-------------------|-------------3---0-----------0-0-|
 |-2---------------2-----------2-2-|-2-------------------------------|
 |---------------------------------|---------------------------------|
 |---------------------------------|---------------------------------|
 |---------------------------------|---------------------------------|

   G               A                 A               D
 |-----3---2---0---5---5-------5---|-7---7---------------------------|
 |-0-------------------------------|---------7---5-------------------|
 |---------------------------------|-----------------7---------------|
 |---------------------------------|---------------------------------|
 |---------------------------------|---------------------------------|
 |---------------------------------|---------------------------------|


Jon Sebastian Frederiksen - 12th /December /08
            
Submit corrections

comments powered by Disqus
↑ Back to top | Misc Christmas Tabs for Jingle Bells. Lyrics for acoustic guitar and electric guitar. Tablatures and chords are parodies/interpretations of the original songs. You may use it for private study, scholarship, research or language learning purposes only