» » »

Misc Christmas, Jingle Bells Tabs (ver.1)

Artists:  A B C D E F G H I J K L M N O P Q R S T U V W X Y Z # 

Jingle Bells Tabs (ver.1)

Misc Christmas Tabs
Rating:
0/5 (0 votes)
Jingle Bells lessons Tabs too difficult? Try these video lessons and learn fast
                timming indication over number.

"=1 rest
8=8th not
1=quarter
2=half
3=dotted half not
@=whole
if 1 is over one number and not over five numbers after
that, than all those notes are quarter notes untill a
new time is told.

-main verse-
   1 1 1 1 1 1 1 1 1 1 1 1 1  1 1 1
e------------------------------------------------------
b-----------------3-3--------5-3-----------------------
g--5-5-5-5-5-4-4-4-----4-2-0------2--------------------
d------------------------------------------------------
a------------------------------------------------------
e------------------------------------------------------

-verse-
   1 1 2  1 1 2  1 11 1 @-----1 1 1 1 1 1 1 1 1 1  1 1 1 1 1 1
e-------------------------------------------------------------
b------------------3---------------------------------------3-5
g--4-4-4--4-4-4--4--0-2-4-----5-5-5-5-5-4-4-"-"-"--2-4-2-4----
d-------------------------------------------------------------
a-------------------------------------------------------------
e-------------------------------------------------------------

   1 1 1 1 1 1 1 1 1 1 1 1 1  1 1 1
e------------------------------------------------------
b-----------------3-3--------5-3-----------------------
g--5-5-5-5-5-4-4-4-----4-2-0------2--------------------
d------------------------------------------------------
a------------------------------------------------------
e------------------------------------------------------

-bridge-
   1 1 1 1 1 1 1 1 2  2  2  2  @   1  1 2  1 1 1 1 1 11
e------------------------------------------------------
b------------------3--3---------------5-3--3---------3-
g--5-5-5-5-5-4-4-4-------5--2--0---0---------5-4-2-0--0
d------------------------------------------------------
a------------------------------------------------------
e------------------------------------------------------

The End.

__Lyrics__

Jingle bells, Jingle Bells, Jingle all the way
Oh what fun it is to ride in a one horse open
sleigh hey!!
Jingle Bells, Jingle Bells Jingle
            

comments powered by Disqus
↑ Back to top | Misc Christmas Tabs for Jingle Bells. Lyrics for acoustic guitar and electric guitar. Tablatures and chords are parodies/interpretations of the original songs. You may use it for private study, scholarship, research or language learning purposes only