» » »

Misc Christmas, It Came Upon The Midnight Clear Tabs (ver.1)

Artists:  A B C D E F G H I J K L M N O P Q R S T U V W X Y Z # 

It Came Upon The Midnight Clear Tabs (ver.1)

Misc Christmas Tabs
 Rating:
4/5 (4 votes)
It Came Upon The Midnight Clear lessons Tabs too difficult? Try these video lessons and learn fast
1
                ~Subject: TAB:  It Came Upon A Midnight Clear
~Date: Sat, 14 Nov 92 14:57:00 GMT

In response to the request for Christmas songs, here is an arrangement
of "It Came Upon A Midnight Clear".   The song is in 3/4 time and
written here in the key of C.  The symbols below the tab are for
timing purposes:  one and two and three and,  etc.
                  ^   .   ^   .   ^     .

The chords all are pretty basic.  As far as the F and F6 go, I find
it easier to use the thumb to play the 6th string/1st fret rather
than using the barre F.  It makes for a much smoother transition 
when changing from C to F and back to C again.  Enjoy...

 ~~~~~~~~~~~~~~~~~~~~~~~~~~~~~~~~~~~~~~~~~~~~~~~~~~~~~~~~~~~~~~~~~~
   Mike Mongeau                        Raytheon Equipment Division
 ~~~~~~~~~~~~~~~~~~~~~~~~~~~~~~~~~~~~~~~~~~~~~~~~~~~~~~~~~~~~~~~~~~

                     It Came Upon A Midnight Clear


3/4  C                  F6                 C
+--+-0----------------+------------------+------------------+------------------+
---|-1-----------0----|-3--------1-------|------------------|------------------|
-0-|------------------|-2-----------2----|-0-----------2----|-0-----------0----|
---|-------2-----2----|-------3-----3----|-------2----------|-------2-----2----|
---|-3----------------|------------------|-3--------0-------|-3----------------|
+--+------------------+-1----------------+------------------+------------------+
     ^  .  ^  .  ^  .   ^  .  ^  .  ^  .   ^  .  ^  .  ^  .   ^  .  ^  .  ^  .

   F                                     G                  G7
 +------------------+-------------0----+------------------+------------------+
 |----------0--1----|-1--------3-------|-3--------------0-|-------0----------|
 |-2-----------2----|-2----------------|-0--------0-------|---0---------0----|
 |-------3----------|-------3-----3----|-------0-----2----|-------3----------|
 |------------------|------------------|------------------|------------------|
 +-1----------------+-1----------------+-3----------------+-3----------------+
   ^  .  ^  .  ^  .   ^  .  ^  .  ^  .   ^  .  ^  .  ^  .   ^  .  ^  .  ^  .

   C                  F6                 C
 +-0----------------+------------------+------------------+------------------+
 |-1-----------0----|-3--------1-------|------------------|------------------|
 |------------------|-2-----------2----|-0-----------2----|-0-----------0----|
 |-------2-----2----|-------3-----3----|-------2----------|-------2-----2----|
 |-3----------------|------------------|-3--------0-------|-3----------------|
 +------------------+-1----------------+------------------+------------------+
   ^  .  ^  .  ^  .   ^  .  ^  .  ^  .   ^  .  ^  .  ^  .   ^  .  ^  .  ^  .

   F                  G                  C
 +------------------+------------------+------------------+-------------0----+
 |------------------|-0----------------|-1----------------|-------------1----|
 |-2-----------2----|-0--------2--0----|-0--------0-----0-|------------------|
 |-------3-----3----|-------0-----0----|-------2----------|-------2-----2----|
 |------------------|------------------|-3----------------|-3----------------|
 +-1----------------+-3----------------+-------------3----+------------------+
   ^  .  ^  .  ^  .   ^  .  ^  .  ^  .   ^  .  ^  .  ^  .   ^  .  ^  .  ^  .

   E                                     Am
 +-0----------------+------------------+------------------+-------------0----+
 |-0----------------|------------------|------------0-----|-1----------------|
 |------------------|-------------1----|-2----------2-----|-2----------------|
 |-------2-----2----|-2-----4----------|-------2----2-----|-------2-----2----|
 |------------------|------------------|-0----------------|-0----------------|
 +-0----------------+-0----------------+------------------+------------------+
   ^  .  ^  .  ^  .   ^  .  ^  .  ^  .   ^  .  ^  .  ^  .   ^  .  ^  .  ^  .

   G                  D                  G                  G7
 +------------------+------------------+------------------+------------------+
 |-3--------1--0----|-------0----------|------------------|------------------|
 |-0----------------|-2-----------2----|-0--------0-----0-|----0--------0----|
 |-------0-----0----|-------0-----0----|-------0-----2----|-------3----------|
 |------------------|------------------|------------------|------------------|
 +-3----------------+-2----------------+-3----------------+-3----------------+
   ^  .  ^  .  ^  .   ^  .  ^  .  ^  .   ^  .  ^  .  ^  .   ^  .  ^  .  ^  .

   C                  F6                 C
 +-0----------------+------------------+------------------+------------------+
 |-1-----------0----|-3--------1-------|------------------|------------------|
 |------------------|-2-----------2----|-0-----------2----|-0-----------0----|
 |-------2-----2----|-------3----------|-------2----------|-------2----------|
 |-3----------------|------------------|-3--------0-------|-3-----------3----|
 +------------------+-1----------------+------------------+------------------+
   ^  .  ^  .  ^  .   ^  .  ^  .  ^  .   ^  .  ^  .  ^  .   ^  .  ^  .  ^  .

   F                  G                  C
 +------------------+------------------+------------------+------------------+
 |------------------|-0----------------|-1----------------|-1----------------|
 |-2-----------2----|-0--------2--0----|-0--------0-----0-|------------------|
 |-------3-----3----|-------0-----0----|-------2----------|------------------|
 |------------------|------------------|-3----------------|-3----------------|
 +-1----------------+-3----------------+-------------3----+------------------+
   ^  .  ^  .  ^  .   ^  .  ^  .  ^  .   ^  .  ^  .  ^  .   ^  .  ^  .  ^  .
            
Submit corrections

comments powered by Disqus
↑ Back to top | Misc Christmas Tabs for It Came Upon The Midnight Clear. Lyrics for acoustic guitar and electric guitar. 1 Tablatures and chords are parodies/interpretations of the original songs. You may use it for private study, scholarship, research or language learning purposes only