» » »

Misc Christmas, In The Bleak Midwinter Tabs (ver.1)

Artists:  A B C D E F G H I J K L M N O P Q R S T U V W X Y Z # 

In The Bleak Midwinter Tabs (ver.1)

Misc Christmas Tabs
 Rating:
4/5 (4 votes)
In The Bleak Midwinter lessons Tabs too difficult? Try these video lessons and learn fast
1
                In the Bleak Mid-Winter

Tab submitted by: Harold Schaefer

This sounds better if capo'ed up a few frets.  

Add your own arpegios on the chords to dress it up a bit. 

Tab Notes:
Tuning: Standard


    G       Emsus4  C6        D    
E|---------|------|--------|-----|
B|-0-1-3-0-|------|---0----|-----|
G|-0-------|-2-0--|-2---2--|-2---|
D|-0-------|-2----|-2---2--|-0---|
A|-2-------|-2----|-3------|-0---|
E|-3-------|------|--------|-----|



    G       Emsus4  C6   D     G    
E|---------|------|---------|-----|
B|-0-1-3-0-|------|---0-----|-----|
G|-0-------|-2-0--|-2---2-0-|-0---|
D|-0-------|-2----|-2---0---|-0---|
A|-2-------|-2----|-3---0---|-2---|
E|-3-------|------|---------|-3---|


    C         Em       G            D 
e|----------|-0-0----|------------|------|
B|-1-0-h1-3-|-0---0--|-3--0-------|------|
G|-0--------|-0------|-0-----2-0--|-2----|
D|-2--------|-2------|-0----------|-0----|
A|-3--------|-2------|-2----------|-0----|
E|----------|-0------|-3----------|------|



    G       Emsus4  C6   D     G    
E|---------|------|---------|------3--|
B|-0-1-3-0-|------|---0-----|-----0---|
G|-0-------|-2-0--|-2---2-0-|----0----|
D|-0-------|-2----|-2---0---|---0-----|
A|-2-------|-2----|-3---0---|--2------|
E|-3-------|------|---------|-3-------|
            
Submit corrections

comments powered by Disqus
↑ Back to top | Misc Christmas Tabs for In The Bleak Midwinter. Lyrics for acoustic guitar and electric guitar. 1 Tablatures and chords are parodies/interpretations of the original songs. You may use it for private study, scholarship, research or language learning purposes only